  0
SECTION
  2
HEADER
  9
$ACADVER
  1
AC1015
  9
$ACADMAINTVER
 70
    20
  9
$DWGCODEPAGE
  3
ANSI_1252
  9
$INSBASE
 10
-1.95447419
 20
0.9779372499999999
 30
0.0
  9
$EXTMIN
 10
5.336739772336073
 20
2.337563142953314
 30
-0.0000000000112498
  9
$EXTMAX
 10
113.2631602507813
 20
82.74533558371187
 30
0.0000000000002956
  9
$LIMMIN
 10
0.0
 20
0.0
  9
$LIMMAX
 10
115.69585169
 20
89.9556807
  9
$ORTHOMODE
 70
     0
  9
$REGENMODE
 70
     1
  9
$FILLMODE
 70
     1
  9
$QTEXTMODE
 70
     0
  9
$MIRRTEXT
 70
     1
  9
$LTSCALE
 40
1.3
  9
$ATTMODE
 70
     1
  9
$TEXTSIZE
 40
0.2
  9
$TRACEWID
 40
0.05
  9
$TEXTSTYLE
  7
ROMANS
  9
$CLAYER
  8
0
  9
$CELTYPE
  6
BYLAYER
  9
$CECOLOR
 62
   256
  9
$CELTSCALE
 40
1.0
  9
$DISPSILH
 70
     0
  9
$DIMSCALE
 40
0.75
  9
$DIMASZ
 40
0.18
  9
$DIMEXO
 40
0.0625
  9
$DIMDLI
 40
0.38
  9
$DIMRND
 40
0.0
  9
$DIMDLE
 40
0.0
  9
$DIMEXE
 40
0.18
  9
$DIMTP
 40
0.0
  9
$DIMTM
 40
0.0
  9
$DIMTXT
 40
0.18
  9
$DIMCEN
 40
0.09
  9
$DIMTSZ
 40
0.0
  9
$DIMTOL
 70
     0
  9
$DIMLIM
 70
     0
  9
$DIMTIH
 70
     1
  9
$DIMTOH
 70
     1
  9
$DIMSE1
 70
     0
  9
$DIMSE2
 70
     0
  9
$DIMTAD
 70
     0
  9
$DIMZIN
 70
     0
  9
$DIMBLK
  1

  9
$DIMASO
 70
     1
  9
$DIMSHO
 70
     1
  9
$DIMPOST
  1

  9
$DIMAPOST
  1

  9
$DIMALT
 70
     0
  9
$DIMALTD
 70
     2
  9
$DIMALTF
 40
25.4
  9
$DIMLFAC
 40
1.0
  9
$DIMTOFL
 70
     0
  9
$DIMTVP
 40
0.0
  9
$DIMTIX
 70
     0
  9
$DIMSOXD
 70
     0
  9
$DIMSAH
 70
     0
  9
$DIMBLK1
  1

  9
$DIMBLK2
  1

  9
$DIMSTYLE
  2
STANDARD
  9
$DIMCLRD
 70
     0
  9
$DIMCLRE
 70
     0
  9
$DIMCLRT
 70
     0
  9
$DIMTFAC
 40
1.0
  9
$DIMGAP
 40
0.09
  9
$DIMJUST
 70
     0
  9
$DIMSD1
 70
     0
  9
$DIMSD2
 70
     0
  9
$DIMTOLJ
 70
     1
  9
$DIMTZIN
 70
     0
  9
$DIMALTZ
 70
     0
  9
$DIMALTTZ
 70
     0
  9
$DIMUPT
 70
     0
  9
$DIMDEC
 70
     4
  9
$DIMTDEC
 70
     4
  9
$DIMALTU
 70
     2
  9
$DIMALTTD
 70
     2
  9
$DIMTXSTY
  7
STANDARD
  9
$DIMAUNIT
 70
     0
  9
$DIMADEC
 70
     0
  9
$DIMALTRND
 40
0.0
  9
$DIMAZIN
 70
     0
  9
$DIMDSEP
 70
    46
  9
$DIMATFIT
 70
     3
  9
$DIMFRAC
 70
     0
  9
$DIMLDRBLK
  1

  9
$DIMLUNIT
 70
     2
  9
$DIMLWD
 70
    -2
  9
$DIMLWE
 70
    -2
  9
$DIMTMOVE
 70
     0
  9
$LUNITS
 70
     2
  9
$LUPREC
 70
     4
  9
$SKETCHINC
 40
0.1
  9
$FILLETRAD
 40
0.094
  9
$AUNITS
 70
     0
  9
$AUPREC
 70
     0
  9
$MENU
  1
acad
  9
$ELEVATION
 40
0.0
  9
$PELEVATION
 40
0.0
  9
$THICKNESS
 40
0.0
  9
$LIMCHECK
 70
     0
  9
$CHAMFERA
 40
0.0
  9
$CHAMFERB
 40
0.0
  9
$CHAMFERC
 40
0.0
  9
$CHAMFERD
 40
0.0
  9
$SKPOLY
 70
     0
  9
$TDCREATE
 40
2449766.674786806
  9
$TDUCREATE
 40
2449767.008120139
  9
$TDUPDATE
 40
2454410.470669143
  9
$TDUUPDATE
 40
2454410.804002477
  9
$TDINDWG
 40
0.8993695718
  9
$TDUSRTIMER
 40
0.8993692014
  9
$USRTIMER
 70
     1
  9
$ANGBASE
 50
0.0
  9
$ANGDIR
 70
     0
  9
$PDMODE
 70
     0
  9
$PDSIZE
 40
0.0
  9
$PLINEWID
 40
0.0
  9
$SPLFRAME
 70
     0
  9
$SPLINETYPE
 70
     6
  9
$SPLINESEGS
 70
     8
  9
$HANDSEED
  5
634
  9
$SURFTAB1
 70
     6
  9
$SURFTAB2
 70
     6
  9
$SURFTYPE
 70
     6
  9
$SURFU
 70
     6
  9
$SURFV
 70
     6
  9
$UCSBASE
  2

  9
$UCSNAME
  2

  9
$UCSORG
 10
0.0
 20
0.0
 30
0.0
  9
$UCSXDIR
 10
1.0
 20
0.0
 30
0.0
  9
$UCSYDIR
 10
0.0
 20
1.0
 30
0.0
  9
$UCSORTHOREF
  2

  9
$UCSORTHOVIEW
 70
     0
  9
$UCSORGTOP
 10
0.0
 20
0.0
 30
0.0
  9
$UCSORGBOTTOM
 10
0.0
 20
0.0
 30
0.0
  9
$UCSORGLEFT
 10
0.0
 20
0.0
 30
0.0
  9
$UCSORGRIGHT
 10
0.0
 20
0.0
 30
0.0
  9
$UCSORGFRONT
 10
0.0
 20
0.0
 30
0.0
  9
$UCSORGBACK
 10
0.0
 20
0.0
 30
0.0
  9
$PUCSBASE
  2

  9
$PUCSNAME
  2

  9
$PUCSORG
 10
0.0
 20
0.0
 30
0.0
  9
$PUCSXDIR
 10
1.0
 20
0.0
 30
0.0
  9
$PUCSYDIR
 10
0.0
 20
1.0
 30
0.0
  9
$PUCSORTHOREF
  2

  9
$PUCSORTHOVIEW
 70
     0
  9
$PUCSORGTOP
 10
0.0
 20
0.0
 30
0.0
  9
$PUCSORGBOTTOM
 10
0.0
 20
0.0
 30
0.0
  9
$PUCSORGLEFT
 10
0.0
 20
0.0
 30
0.0
  9
$PUCSORGRIGHT
 10
0.0
 20
0.0
 30
0.0
  9
$PUCSORGFRONT
 10
0.0
 20
0.0
 30
0.0
  9
$PUCSORGBACK
 10
0.0
 20
0.0
 30
0.0
  9
$USERI1
 70
     0
  9
$USERI2
 70
     0
  9
$USERI3
 70
     0
  9
$USERI4
 70
     0
  9
$USERI5
 70
     0
  9
$USERR1
 40
0.0
  9
$USERR2
 40
0.0
  9
$USERR3
 40
0.0
  9
$USERR4
 40
0.0
  9
$USERR5
 40
0.0
  9
$WORLDVIEW
 70
     1
  9
$SHADEDGE
 70
     3
  9
$SHADEDIF
 70
    70
  9
$TILEMODE
 70
     1
  9
$MAXACTVP
 70
     4
  9
$PINSBASE
 10
0.0
 20
0.0
 30
0.0
  9
$PLIMCHECK
 70
     0
  9
$PEXTMIN
 10
1.000000000000000E+20
 20
1.000000000000000E+20
 30
1.000000000000000E+20
  9
$PEXTMAX
 10
-1.000000000000000E+20
 20
-1.000000000000000E+20
 30
-1.000000000000000E+20
  9
$PLIMMIN
 10
0.0
 20
0.0
  9
$PLIMMAX
 10
12.0
 20
9.0
  9
$UNITMODE
 70
     0
  9
$VISRETAIN
 70
     0
  9
$PLINEGEN
 70
     0
  9
$PSLTSCALE
 70
     0
  9
$TREEDEPTH
 70
  3020
  9
$CMLSTYLE
  2
STANDARD
  9
$CMLJUST
 70
     0
  9
$CMLSCALE
 40
1.0
  9
$PROXYGRAPHICS
 70
     1
  9
$MEASUREMENT
 70
     0
  9
$CELWEIGHT
370
    -1
  9
$ENDCAPS
280
     0
  9
$JOINSTYLE
280
     0
  9
$LWDISPLAY
290
     0
  9
$INSUNITS
 70
     0
  9
$HYPERLINKBASE
  1

  9
$STYLESHEET
  1
monochrome.ctb
  9
$XEDIT
290
     1
  9
$CEPSNTYPE
380
     0
  9
$PSTYLEMODE
290
     1
  9
$FINGERPRINTGUID
  2
{45A4B136-E6FB-4F5E-9A3A-618522F8474C}
  9
$VERSIONGUID
  2
{A321DADC-37EB-4597-8BF7-2590A748A697}
  9
$EXTNAMES
290
     1
  9
$PSVPSCALE
 40
0.0
  9
$OLESTARTUP
290
     0
  0
ENDSEC
  0
SECTION
  2
CLASSES
  0
CLASS
  1
ACDBDICTIONARYWDFLT
  2
AcDbDictionaryWithDefault
  3
ObjectDBX Classes
 90
        0
280
     0
281
     0
  0
CLASS
  1
ACDBPLACEHOLDER
  2
AcDbPlaceHolder
  3
ObjectDBX Classes
 90
        0
280
     0
281
     0
  0
CLASS
  1
LAYOUT
  2
AcDbLayout
  3
ObjectDBX Classes
 90
        0
280
     0
281
     0
  0
CLASS
  1
TABLESTYLE
  2
AcDbTableStyle
  3
ObjectDBX Classes
 90
     2047
280
     0
281
     0
  0
CLASS
  1
DICTIONARYVAR
  2
AcDbDictionaryVar
  3
ObjectDBX Classes
 90
        0
280
     0
281
     0
  0
ENDSEC
  0
SECTION
  2
TABLES
  0
TABLE
  2
VPORT
  5
8
330
0
100
AcDbSymbolTable
 70
     5
  0
VPORT
  5
62E
330
8
100
AcDbSymbolTableRecord
100
AcDbViewportTableRecord
  2
*Active
 70
     0
 10
0.0
 20
0.0
 11
1.0
 21
1.0
 12
59.29995001155872
 22
42.54144936333259
 13
0.0
 23
0.0
 14
1.0
 24
1.0
 15
0.0
 25
0.0
 16
0.0
 26
0.0
 36
1.0
 17
0.0
 27
0.0
 37
0.0
 40
81.03432651172552
 41
1.568270481144343
 42
50.0
 43
0.0
 44
0.0
 50
0.0
 51
0.0
 71
     0
 72
   100
 73
     1
 74
     0
 75
     0
 76
     0
 77
     0
 78
     0
281
     0
 65
     1
110
0.0
120
0.0
130
0.0
111
1.0
121
0.0
131
0.0
112
0.0
122
1.0
132
0.0
 79
     0
146
0.0
  0
ENDTAB
  0
TABLE
  2
LTYPE
  5
5
330
0
100
AcDbSymbolTable
 70
     4
  0
LTYPE
  5
12
330
5
100
AcDbSymbolTableRecord
100
AcDbLinetypeTableRecord
  2
BYBLOCK
 70
     0
  3

 72
    65
 73
     0
 40
0.0
  0
LTYPE
  5
13
330
5
100
AcDbSymbolTableRecord
100
AcDbLinetypeTableRecord
  2
BYLAYER
 70
     0
  3

 72
    65
 73
     0
 40
0.0
  0
LTYPE
  5
14
330
5
100
AcDbSymbolTableRecord
100
AcDbLinetypeTableRecord
  2
CONTINUOUS
 70
     0
  3
Solid line
 72
    65
 73
     0
 40
0.0
  0
LTYPE
  5
1D
330
5
100
AcDbSymbolTableRecord
100
AcDbLinetypeTableRecord
  2
HIDDEN
 70
     0
  3
__ __ __ __ __ __ __ __ __ __ __ __ __ __ __ __
 72
    65
 73
     2
 40
0.375
 49
0.25
 74
     0
 49
-0.125
 74
     0
  0
LTYPE
  5
1E
330
5
100
AcDbSymbolTableRecord
100
AcDbLinetypeTableRecord
  2
CENTERX2
 70
     0
  3
________  __  ________  __  ________  __  _____
 72
    65
 73
     4
 40
4.0
 49
2.5
 74
     0
 49
-0.5
 74
     0
 49
0.5
 74
     0
 49
-0.5
 74
     0
  0
ENDTAB
  0
TABLE
  2
LAYER
  5
2
330
0
100
AcDbSymbolTable
 70
     2
  0
LAYER
  5
F
330
2
100
AcDbSymbolTableRecord
100
AcDbLayerTableRecord
  2
0
 70
     0
 62
     7
  6
CONTINUOUS
370
    -3
390
53F
  0
LAYER
  5
50F
330
2
100
AcDbSymbolTableRecord
100
AcDbLayerTableRecord
  2
DEFPOINTS
 70
     0
 62
     7
  6
CONTINUOUS
290
     0
370
    -3
390
53F
  0
ENDTAB
  0
TABLE
  2
STYLE
  5
3
330
0
100
AcDbSymbolTable
 70
     5
  0
STYLE
  5
10
330
3
100
AcDbSymbolTableRecord
100
AcDbTextStyleTableRecord
  2
STANDARD
 70
     0
 40
0.0
 41
1.0
 50
0.0
 71
     0
 42
0.2
  3
txt
  4

  0
STYLE
  5
1C
330
3
100
AcDbSymbolTableRecord
100
AcDbTextStyleTableRecord
  2
ROMANS
 70
     0
 40
0.0
 41
1.0
 50
0.0
 71
     0
 42
0.2
  3
romans
  4

  0
ENDTAB
  0
TABLE
  2
VIEW
  5
6
330
0
100
AcDbSymbolTable
 70
     0
  0
ENDTAB
  0
TABLE
  2
UCS
  5
7
330
0
100
AcDbSymbolTable
 70
     0
  0
ENDTAB
  0
TABLE
  2
APPID
  5
9
330
0
100
AcDbSymbolTable
 70
     4
  0
APPID
  5
11
330
9
100
AcDbSymbolTableRecord
100
AcDbRegAppTableRecord
  2
ACAD
 70
     0
  0
APPID
  5
5EA
330
9
100
AcDbSymbolTableRecord
100
AcDbRegAppTableRecord
  2
DCO15
 70
     0
  0
APPID
  5
605
330
9
100
AcDbSymbolTableRecord
100
AcDbRegAppTableRecord
  2
ACAD_PSEXT
 70
     0
  0
APPID
  5
611
330
9
100
AcDbSymbolTableRecord
100
AcDbRegAppTableRecord
  2
ACAD_EXEMPT_FROM_CAD_STANDARDS
 70
     0
  0
ENDTAB
  0
TABLE
  2
DIMSTYLE
  5
A
330
0
100
AcDbSymbolTable
 70
     6
100
AcDbDimStyleTable
 71
     1
340
4F7
  0
DIMSTYLE
105
4F7
330
A
100
AcDbSymbolTableRecord
100
AcDbDimStyleTableRecord
  2
STANDARD
 70
     0
340
10
  0
DIMSTYLE
105
554
330
A
100
AcDbSymbolTableRecord
100
AcDbDimStyleTableRecord
  2
ROMANS
 70
     0
 40
4.0
 44
0.09
140
0.125
141
0.0
271
     2
272
     2
340
1C
  0
ENDTAB
  0
TABLE
  2
BLOCK_RECORD
  5
1
330
0
100
AcDbSymbolTable
 70
     4
  0
BLOCK_RECORD
  5
18
330
1
100
AcDbSymbolTableRecord
100
AcDbBlockTableRecord
  2
*MODEL_SPACE
340
542
  0
BLOCK_RECORD
  5
15
330
1
100
AcDbSymbolTableRecord
100
AcDbBlockTableRecord
  2
*PAPER_SPACE
340
543
  0
ENDTAB
  0
ENDSEC
  0
SECTION
  2
BLOCKS
  0
BLOCK
  5
23
330
18
100
AcDbEntity
  8
0
100
AcDbBlockBegin
  2
*MODEL_SPACE
 70
     0
 10
0.0
 20
0.0
 30
0.0
  3
*MODEL_SPACE
  1

  0
ENDBLK
  5
24
330
18
100
AcDbEntity
  8
0
100
AcDbBlockEnd
  0
BLOCK
  5
21
330
15
100
AcDbEntity
 67
     1
  8
0
100
AcDbBlockBegin
  2
*PAPER_SPACE
 70
     0
 10
0.0
 20
0.0
 30
0.0
  3
*PAPER_SPACE
  1

  0
ENDBLK
  5
22
330
15
100
AcDbEntity
 67
     1
  8
0
100
AcDbBlockEnd
  0
ENDSEC
  0
SECTION
  2
ENTITIES
  0
LINE
  5
25
330
18
100
AcDbEntity
  8
0
  6
ByBlock
 62
     7
100
AcDbLine
 10
49.15171548
 20
44.53079509000001
 30
0.0
 11
55.88171967
 21
44.53079509000001
 31
0.0
  0
LINE
  5
26
330
18
100
AcDbEntity
  8
0
 62
     7
100
AcDbLine
 10
45.33977260999999
 20
6.67492873
 30
0.0
 11
69.32034046
 21
6.67492873
 31
0.0
  0
LINE
  5
27
330
18
100
AcDbEntity
  8
0
 62
     7
100
AcDbLine
 10
45.33977260999999
 20
10.39896985
 30
0.0
 11
69.32034046
 21
10.39896985
 31
0.0
  0
LINE
  5
28
330
18
100
AcDbEntity
  8
0
 62
     7
100
AcDbLine
 10
45.33977260999999
 20
32.40466741
 30
0.0
 11
69.32034046
 21
32.40466741
 31
0.0
  0
LINE
  5
29
330
18
100
AcDbEntity
  8
0
 62
     7
100
AcDbLine
 10
45.33977260999999
 20
30.71192145
 30
0.0
 11
69.32034046
 21
30.71192145
 31
0.0
  0
LINE
  5
2A
330
18
100
AcDbEntity
  8
0
 62
     7
100
AcDbLine
 10
45.33977260999999
 20
29.01917548
 30
0.0
 11
69.32034046
 21
29.01917548
 31
0.0
  0
LINE
  5
2B
330
18
100
AcDbEntity
  8
0
 62
     7
100
AcDbLine
 10
45.33977260999999
 20
27.77782844
 30
0.0
 11
69.32034046
 21
27.77782844
 31
0.0
  0
LINE
  5
2C
330
18
100
AcDbEntity
  8
0
 62
     7
100
AcDbLine
 10
45.33977260999999
 20
26.5364814
 30
0.0
 11
69.32034046
 21
26.5364814
 31
0.0
  0
LINE
  5
2D
330
18
100
AcDbEntity
  8
0
 62
     7
100
AcDbLine
 10
45.33977260999999
 20
25.29513436
 30
0.0
 11
69.32034046
 21
25.29513436
 31
0.0
  0
LINE
  5
2E
330
18
100
AcDbEntity
  8
0
 62
     7
100
AcDbLine
 10
45.33977260999999
 20
24.05378731
 30
0.0
 11
69.32034046
 21
24.05378731
 31
0.0
  0
LINE
  5
2F
330
18
100
AcDbEntity
  8
0
 62
     7
100
AcDbLine
 10
45.33977260999999
 20
22.81244027
 30
0.0
 11
69.32034046
 21
22.81244027
 31
0.0
  0
LINE
  5
30
330
18
100
AcDbEntity
  8
0
 62
     7
100
AcDbLine
 10
45.33977260999999
 20
21.57109323
 30
0.0
 11
69.32034046
 21
21.57109323
 31
0.0
  0
LINE
  5
31
330
18
100
AcDbEntity
  8
0
 62
     7
100
AcDbLine
 10
45.33977260999999
 20
20.32974619
 30
0.0
 11
69.32034046
 21
20.32974619
 31
0.0
  0
LINE
  5
32
330
18
100
AcDbEntity
  8
0
 62
     7
100
AcDbLine
 10
45.33977260999999
 20
19.08839915
 30
0.0
 11
69.32034046
 21
19.08839915
 31
0.0
  0
LINE
  5
33
330
18
100
AcDbEntity
  8
0
 62
     7
100
AcDbLine
 10
45.33977260999999
 20
17.84705211
 30
0.0
 11
69.32034046
 21
17.84705211
 31
0.0
  0
LINE
  5
34
330
18
100
AcDbEntity
  8
0
 62
     7
100
AcDbLine
 10
45.33977260999999
 20
16.60570506
 30
0.0
 11
69.32034046
 21
16.60570506
 31
0.0
  0
LINE
  5
35
330
18
100
AcDbEntity
  8
0
 62
     7
100
AcDbLine
 10
45.33977260999999
 20
15.36435802
 30
0.0
 11
69.32034046
 21
15.36435802
 31
0.0
  0
LINE
  5
36
330
18
100
AcDbEntity
  8
0
 62
     7
100
AcDbLine
 10
45.33977260999999
 20
14.12301098
 30
0.0
 11
69.32034046
 21
14.12301098
 31
0.0
  0
LINE
  5
37
330
18
100
AcDbEntity
  8
0
 62
     7
100
AcDbLine
 10
45.33977260999999
 20
12.88166394
 30
0.0
 11
69.32034046
 21
12.88166394
 31
0.0
  0
LINE
  5
38
330
18
100
AcDbEntity
  8
0
 62
     7
100
AcDbLine
 10
45.33977260999999
 20
11.6403169
 30
0.0
 11
69.32034046
 21
11.6403169
 31
0.0
  0
LINE
  5
39
330
18
100
AcDbEntity
  8
0
 62
     7
100
AcDbLine
 10
45.33977260999999
 20
9.157622809999999
 30
0.0
 11
69.32034046
 21
9.157622809999999
 31
0.0
  0
LINE
  5
3A
330
18
100
AcDbEntity
  8
0
 62
     7
100
AcDbLine
 10
45.33977260999999
 20
7.91627577
 30
0.0
 11
69.32034046
 21
7.91627577
 31
0.0
  0
LINE
  5
3B
330
18
100
AcDbEntity
  8
0
 62
     7
100
AcDbLine
 10
45.33977260999999
 20
2.9508876
 30
0.0
 11
69.32034046
 21
2.9508876
 31
0.0
  0
LINE
  5
3C
330
18
100
AcDbEntity
  8
0
 62
     7
100
AcDbLine
 10
45.33977260999999
 20
4.192234649999999
 30
0.0
 11
69.32034046
 21
4.192234649999999
 31
0.0
  0
LINE
  5
3D
330
18
100
AcDbEntity
  8
0
 62
     7
100
AcDbLine
 10
45.33977260999999
 20
5.433581689999999
 30
0.0
 11
69.32034046
 21
5.433581689999999
 31
0.0
  0
TEXT
  5
3E
330
18
100
AcDbEntity
  8
0
 62
     7
100
AcDbText
 10
59.67611627000001
 20
29.50130049
 30
0.0
 40
0.7053108200000001
  1
STANDARD (inch)
  7
ROMANS
100
AcDbText
  0
TEXT
  5
3F
330
18
100
AcDbEntity
  8
0
 62
     7
100
AcDbText
 10
46.22258604
 20
31.10436994
 30
0.0
 40
0.7053108200000001
  1
     DIMENSIONS - T15 (METAL)
  7
ROMANS
100
AcDbText
  0
TEXT
  5
40
330
18
100
AcDbEntity
  8
0
100
AcDbText
 10
63.45166752625274
 20
26.79992934
 30
0.0
 40
0.7053108200000001
  1
2.3
  7
ROMANS
100
AcDbText
  0
TEXT
  5
41
330
18
100
AcDbEntity
  8
0
100
AcDbText
 10
62.77690980343463
 20
23.12914992
 30
0.0
 40
0.7053108200000001
  1
32.4
  7
ROMANS
100
AcDbText
  0
TEXT
  5
42
330
18
100
AcDbEntity
  8
0
100
AcDbText
 10
62.78182007343462
 20
25.5992767
 30
0.0
 40
0.7053108200000001
  1
17.0
  7
ROMANS
100
AcDbText
  0
TEXT
  5
43
330
18
100
AcDbEntity
  8
0
100
AcDbText
 10
63.44053614645085
 20
21.90051476
 30
0.0
 40
0.7053108200000001
  1
2.8
  7
ROMANS
100
AcDbText
  0
LINE
  5
44
330
18
100
AcDbEntity
  8
0
 62
     7
100
AcDbLine
 10
61.65007248
 20
47.24748537
 30
0.0
 11
51.25977682
 21
47.24748537
 31
0.0
  0
LINE
  5
45
330
18
100
AcDbEntity
  8
0
 62
     7
100
AcDbLine
 10
61.65007248
 20
46.76981454999999
 30
0.0
 11
51.25977682
 21
46.76981454999999
 31
0.0
  0
ARC
  5
46
330
18
100
AcDbEntity
  8
0
  6
HIDDEN
 62
     7
100
AcDbCircle
 10
51.78282637
 20
58.48375344
 30
0.0
 40
1.379596529999999
100
AcDbArc
 50
74.88659832
 51
107.53363382
  0
LINE
  5
47
330
18
100
AcDbEntity
  8
0
  6
HIDDEN
 62
     7
100
AcDbLine
 10
52.09570076
 20
61.71135778
 30
0.0
 11
51.46995197999999
 21
61.71135778
 31
0.0
  0
ARC
  5
48
330
18
100
AcDbEntity
  8
0
 62
     7
100
AcDbCircle
 10
56.45492465
 20
61.17445578
 30
0.0
 40
7.162361609999999
100
AcDbArc
 50
108.96895895
 51
178.08906629
  0
ARC
  5
49
330
18
100
AcDbEntity
  8
0
 62
     7
100
AcDbCircle
 10
56.45492465
 20
61.17445578
 30
0.0
 40
6.63387275
100
AcDbArc
 50
110.54552396
 51
177.93676795
  0
ARC
  5
4A
330
18
100
AcDbEntity
  8
0
 62
     7
100
AcDbCircle
 10
56.45492465
 20
61.17445578
 30
0.0
 40
7.162361609999999
100
AcDbArc
 50
181.91093371
 51
251.03104105
  0
ARC
  5
4B
330
18
100
AcDbEntity
  8
0
 62
     7
100
AcDbCircle
 10
56.45492465
 20
61.17445578
 30
0.0
 40
6.63387275
100
AcDbArc
 50
182.06323205
 51
249.45447604
  0
LINE
  5
4C
330
18
100
AcDbEntity
  8
0
  6
ByBlock
 62
     7
100
AcDbLine
 10
8.633708229999999
 20
32.48388338
 30
0.0
 11
14.06004874
 21
32.48388338
 31
0.0
  0
LINE
  5
4D
330
18
100
AcDbEntity
  8
0
  6
ByBlock
 62
     7
100
AcDbLine
 10
9.58904987
 20
30.26876147
 30
0.0
 11
14.06004874
 21
30.26876147
 31
0.0
  0
LINE
  5
4E
330
18
100
AcDbEntity
  8
0
 62
     7
100
AcDbLine
 10
19.40996191
 20
20.97319409
 30
0.0
 11
9.856545529999999
 21
20.97319409
 31
0.0
  0
LINE
  5
4F
330
18
100
AcDbEntity
  8
0
 62
     7
100
AcDbLine
 10
16.60364585
 20
23.60038359
 30
0.0
 11
12.66286159
 21
23.60038359
 31
0.0
  0
LINE
  5
50
330
18
100
AcDbEntity
  8
0
 62
     7
100
AcDbLine
 10
16.60364585
 20
25.03339605
 30
0.0
 11
12.66286159
 21
25.03339605
 31
0.0
  0
LINE
  5
51
330
18
100
AcDbEntity
  8
0
 62
     7
100
AcDbLine
 10
12.66286159
 20
23.60038359
 30
0.0
 11
14.63325372
 21
22.40620654
 31
0.0
  0
LINE
  5
53
330
18
100
AcDbEntity
  8
0
 62
     7
100
AcDbLine
 10
7.94586225
 20
27.66058556
 30
0.0
 11
7.94586225
 21
17.15182753
 31
0.0
  0
LINE
  5
54
330
18
100
AcDbEntity
  8
0
 62
     7
100
AcDbLine
 10
9.856545529999999
 20
27.66058556
 30
0.0
 11
9.856545529999999
 21
17.15182753
 31
0.0
  0
LINE
  5
56
330
18
100
AcDbEntity
  8
0
 62
     7
100
AcDbLine
 10
8.63275289
 20
17.59988276
 30
0.0
 11
8.63275289
 21
17.15182753
 31
0.0
  0
LINE
  5
57
330
18
100
AcDbEntity
  8
0
 62
     7
100
AcDbLine
 10
9.16965489
 20
17.59988276
 30
0.0
 11
9.16965489
 21
17.15182753
 31
0.0
  0
LINE
  5
58
330
18
100
AcDbEntity
  8
0
  6
ByBlock
 62
     7
100
AcDbLine
 10
8.030887659999999
 20
15.2292055
 30
0.0
 11
7.429022419999999
 21
15.2292055
 31
0.0
  0
LINE
  5
59
330
18
100
AcDbEntity
  8
0
  6
ByBlock
 62
     7
100
AcDbLine
 10
8.63275289
 20
16.94284655
 30
0.0
 11
8.63275289
 21
14.62734027
 31
0.0
  0
LINE
  5
5A
330
18
100
AcDbEntity
  8
0
  6
ByBlock
 62
     7
100
AcDbLine
 10
9.16965489
 20
16.94284655
 30
0.0
 11
9.16965489
 21
14.62734027
 31
0.0
  0
SOLID
  5
5B
330
18
100
AcDbEntity
  8
0
  6
ByBlock
 62
     7
100
AcDbTrace
 10
9.771520119999999
 20
15.32951638
 30
0.0
 11
9.771520119999999
 21
15.12889463
 31
0.0
 12
9.16965489
 22
15.2292055
 32
0.0
 13
9.16965489
 23
15.2292055
 33
0.0
  0
SOLID
  5
5C
330
18
100
AcDbEntity
  8
0
  6
ByBlock
 62
     7
100
AcDbTrace
 10
8.030887659999999
 20
15.32951638
 30
0.0
 11
8.030887659999999
 21
15.12889463
 31
0.0
 12
8.63275289
 22
15.2292055
 32
0.0
 13
8.63275289
 23
15.2292055
 33
0.0
  0
POINT
  5
5D
330
18
100
AcDbEntity
  8
0
  6
ByBlock
 62
     7
100
AcDbPoint
 10
9.16965489
 20
15.2292055
 30
0.0
  0
LINE
  5
5E
330
18
100
AcDbEntity
  8
0
  6
ByBlock
 62
     7
100
AcDbLine
 10
9.771520119999999
 20
15.2292055
 30
0.0
 11
10.37338535
 21
15.2292055
 31
0.0
  0
LINE
  5
5F
330
18
100
AcDbEntity
  8
0
 62
     7
100
AcDbLine
 10
9.16965489
 20
17.15182753
 30
0.0
 11
9.856545529999999
 21
17.15182753
 31
0.0
  0
LINE
  5
60
330
18
100
AcDbEntity
  8
0
 62
     7
100
AcDbLine
 10
7.94586225
 20
17.15182753
 30
0.0
 11
8.63275289
 21
17.15182753
 31
0.0
  0
POINT
  5
61
330
18
100
AcDbEntity
  8
0
  6
ByBlock
 62
     7
100
AcDbPoint
 10
8.63275289
 20
17.15182753
 30
0.0
  0
POINT
  5
62
330
18
100
AcDbEntity
  8
0
  6
ByBlock
 62
     7
100
AcDbPoint
 10
9.16965489
 20
17.15182753
 30
0.0
  0
TEXT
  5
63
330
18
100
AcDbEntity
  8
0
  6
ByBlock
 62
     7
100
AcDbText
 10
10.76125981761905
 20
14.8852055
 30
0.0
 40
0.6879999999999999
  1
P
  7
ROMANS
 72
     4
 11
11.12164077
 21
15.2292055
 31
0.0
100
AcDbText
  0
ARC
  5
64
330
18
100
AcDbEntity
  8
0
 62
     7
100
AcDbCircle
 10
8.040343659999999
 20
22.40620654
 30
0.0
 40
1.43301246
100
AcDbArc
 50
93.7803689
 51
266.2196311
  0
ARC
  5
65
330
18
100
AcDbEntity
  8
0
 62
     7
100
AcDbCircle
 10
8.901203889999999
 20
17.59988276
 30
0.0
 40
0.268451
100
AcDbArc
 50
0.0
 51
180.0
  0
LINE
  5
66
330
18
100
AcDbEntity
  8
0
 62
     7
100
AcDbLine
 10
12.66286159
 20
23.839219
 30
0.0
 11
9.856545529999999
 21
23.839219
 31
0.0
  0
LINE
  5
67
330
18
100
AcDbEntity
  8
0
 62
     7
100
AcDbLine
 10
12.66286159
 20
25.03339605
 30
0.0
 11
12.66286159
 21
23.60038359
 31
0.0
  0
LINE
  5
68
330
18
100
AcDbEntity
  8
0
  6
ByBlock
 62
     7
100
AcDbLine
 10
7.94586225
 20
27.89942097
 30
0.0
 11
7.94586225
 21
33.17172936
 31
0.0
  0
LINE
  5
69
330
18
100
AcDbEntity
  8
0
  6
ByBlock
 62
     7
100
AcDbLine
 10
8.901203889999999
 20
27.75229835
 30
0.0
 11
8.901203889999999
 21
30.95660745
 31
0.0
  0
ARC
  5
6A
330
18
100
AcDbEntity
  8
0
 62
     7
100
AcDbCircle
 10
8.901203889999999
 20
27.21253033
 30
0.0
 40
0.268451
100
AcDbArc
 50
180.0
 51
0.0
  0
LINE
  5
6B
330
18
100
AcDbEntity
  8
0
 62
     7
100
AcDbLine
 10
9.16965489
 20
27.66058556
 30
0.0
 11
9.856545529999999
 21
27.66058556
 31
0.0
  0
POINT
  5
6C
330
18
100
AcDbEntity
  8
0
  6
ByBlock
 62
     7
100
AcDbPoint
 10
7.94586225
 20
27.66058556
 30
0.0
  0
POINT
  5
6D
330
18
100
AcDbEntity
  8
0
  6
ByBlock
 62
     7
100
AcDbPoint
 10
8.901203889999999
 20
27.51346295
 30
0.0
  0
LINE
  5
6E
330
18
100
AcDbEntity
  8
0
 62
     7
100
AcDbLine
 10
7.94586225
 20
27.66058556
 30
0.0
 11
8.63275289
 21
27.66058556
 31
0.0
  0
LINE
  5
6F
330
18
100
AcDbEntity
  8
0
 62
     7
100
AcDbLine
 10
9.16965489
 20
27.21253033
 30
0.0
 11
9.16965489
 21
27.66058556
 31
0.0
  0
LINE
  5
70
330
18
100
AcDbEntity
  8
0
 62
     7
100
AcDbLine
 10
8.63275289
 20
27.21253033
 30
0.0
 11
8.63275289
 21
27.66058556
 31
0.0
  0
SOLID
  5
71
330
18
100
AcDbEntity
  8
0
  6
ByBlock
 62
     7
100
AcDbTrace
 10
9.58904987
 20
30.38340246
 30
0.0
 11
9.58904987
 21
30.15412047
 31
0.0
 12
8.901203889999999
 22
30.26876147
 32
0.0
 13
8.901203889999999
 23
30.26876147
 33
0.0
  0
SOLID
  5
72
330
18
100
AcDbEntity
  8
0
  6
ByBlock
 62
     7
100
AcDbTrace
 10
8.633708229999999
 20
32.59852437
 30
0.0
 11
8.633708229999999
 21
32.36924238
 31
0.0
 12
7.94586225
 22
32.48388338
 32
0.0
 13
7.94586225
 23
32.48388338
 33
0.0
  0
LINE
  5
73
330
18
100
AcDbEntity
  8
0
 62
     7
100
AcDbLine
 10
45.33977260999999
 20
2.9508876
 30
0.0
 11
45.33977260999999
 21
32.40466741
 31
0.0
  0
LINE
  5
74
330
18
100
AcDbEntity
  8
0
 62
     7
100
AcDbLine
 10
49.57163752999999
 20
2.9508876
 30
0.0
 11
49.57163752999999
 21
30.71192145
 31
0.0
  0
TEXT
  5
75
330
18
100
AcDbEntity
  8
0
 62
     7
100
AcDbText
 10
47.1425471
 20
9.429757869999999
 30
0.0
 40
0.7053108200000001
  1
S
  7
ROMANS
100
AcDbText
  0
TEXT
  5
76
330
18
100
AcDbEntity
  8
0
 62
     7
100
AcDbText
 10
47.1425471
 20
5.63018105
 30
0.0
 40
0.7053108200000001
  1
V
  7
ROMANS
100
AcDbText
  0
TEXT
  5
77
330
18
100
AcDbEntity
  8
0
 62
     7
100
AcDbText
 10
47.1425471
 20
3.23242647
 30
0.0
 40
0.7053108200000001
  1
X
  7
ROMANS
100
AcDbText
  0
TEXT
  5
78
330
18
100
AcDbEntity
  8
0
 62
     7
100
AcDbText
 10
47.1425471
 20
4.39312296
 30
0.0
 40
0.7053108200000001
  1
W
  7
ROMANS
100
AcDbText
  0
TEXT
  5
79
330
18
100
AcDbEntity
  8
0
 62
     7
100
AcDbText
 10
47.1425471
 20
6.955055
 30
0.0
 40
0.7053108200000001
  1
U
  7
ROMANS
100
AcDbText
  0
TEXT
  5
7A
330
18
100
AcDbEntity
  8
0
 62
     7
100
AcDbText
 10
47.1425471
 20
8.19640204
 30
0.0
 40
0.7053108200000001
  1
T
  7
ROMANS
100
AcDbText
  0
LINE
  5
7B
330
18
100
AcDbEntity
  8
0
 62
     7
100
AcDbLine
 10
19.40996191
 20
27.66058556
 30
0.0
 11
19.40996191
 21
17.15182753
 31
0.0
  0
LINE
  5
7C
330
18
100
AcDbEntity
  8
0
 62
     7
100
AcDbLine
 10
21.32064519
 20
27.66058556
 30
0.0
 11
21.32064519
 21
17.15182753
 31
0.0
  0
LINE
  5
7E
330
18
100
AcDbEntity
  8
0
  6
ByBlock
 62
     7
100
AcDbLine
 10
25.42333039
 20
26.6106651
 30
0.0
 11
25.42333039
 21
21.9423222
 31
0.0
  0
LINE
  5
7F
330
18
100
AcDbEntity
  8
0
  6
ByBlock
 62
     7
100
AcDbLine
 10
28.895257
 20
27.05872033
 30
0.0
 11
28.895257
 21
24.15513194
 31
0.0
  0
LINE
  5
80
330
18
100
AcDbEntity
  8
0
  6
ByBlock
 62
     7
100
AcDbLine
 10
20.84273554
 20
17.59988276
 30
0.0
 11
26.02519562
 21
17.59988276
 31
0.0
  0
LINE
  5
81
330
18
100
AcDbEntity
  8
0
  6
ByBlock
 62
     7
100
AcDbLine
 10
21.52962618
 20
17.15182753
 30
0.0
 11
29.49712224
 21
17.15182753
 31
0.0
  0
LINE
  5
82
330
18
100
AcDbEntity
  8
0
 62
     7
100
AcDbLine
 10
20.09685255
 20
17.59988276
 30
0.0
 11
20.09685255
 21
17.15182753
 31
0.0
  0
LINE
  5
83
330
18
100
AcDbEntity
  8
0
 62
     7
100
AcDbLine
 10
20.63375455
 20
17.59988276
 30
0.0
 11
20.63375455
 21
17.15182753
 31
0.0
  0
LINE
  5
84
330
18
100
AcDbEntity
  8
0
 62
     7
100
AcDbLine
 10
21.32064519
 20
17.15182753
 30
0.0
 11
20.63375455
 21
17.15182753
 31
0.0
  0
LINE
  5
85
330
18
100
AcDbEntity
  8
0
 62
     7
100
AcDbLine
 10
20.09685255
 20
17.15182753
 30
0.0
 11
19.40996191
 21
17.15182753
 31
0.0
  0
POINT
  5
86
330
18
100
AcDbEntity
  8
0
  6
ByBlock
 62
     7
100
AcDbPoint
 10
21.32064519
 20
17.15182753
 30
0.0
  0
LINE
  5
87
330
18
100
AcDbEntity
  8
0
 62
     7
100
AcDbLine
 10
19.40996191
 20
23.839219
 30
0.0
 11
16.60364585
 21
23.839219
 31
0.0
  0
LINE
  5
88
330
18
100
AcDbEntity
  8
0
 62
     7
100
AcDbLine
 10
16.60364585
 20
23.60038359
 30
0.0
 11
14.63325372
 21
22.40620654
 31
0.0
  0
LINE
  5
89
330
18
100
AcDbEntity
  8
0
 62
     7
100
AcDbLine
 10
16.60364585
 20
25.03339605
 30
0.0
 11
16.60364585
 21
23.60038359
 31
0.0
  0
ARC
  5
8A
330
18
100
AcDbEntity
  8
0
 62
     7
100
AcDbCircle
 10
21.22616378
 20
22.40620654
 30
0.0
 40
1.43301246
100
AcDbArc
 50
273.7803689
 51
86.21963110000001
  0
ARC
  5
8B
330
18
100
AcDbEntity
  8
0
 62
     7
100
AcDbCircle
 10
20.36530355
 20
17.59988276
 30
0.0
 40
0.268451
100
AcDbArc
 50
0.0
 51
180.0
  0
SOLID
  5
8C
330
18
100
AcDbEntity
  8
0
  6
ByBlock
 62
     7
100
AcDbTrace
 10
28.79494613
 20
17.75369276
 30
0.0
 11
28.99556788
 21
17.75369276
 31
0.0
 12
28.895257
 22
17.15182753
 32
0.0
 13
28.895257
 23
17.15182753
 33
0.0
  0
TEXT
  5
8D
330
18
100
AcDbEntity
  8
0
  6
ByBlock
 62
     7
100
AcDbText
 10
25.03018753285715
 20
20.99645697
 30
0.0
 40
0.6879999999999999
  1
M
  7
ROMANS
 72
     4
 11
25.42333039
 21
21.34045697
 31
0.0
100
AcDbText
  0
LINE
  5
8E
330
18
100
AcDbEntity
  8
0
  6
ByBlock
 62
     7
100
AcDbLine
 10
28.895257
 20
17.75369276
 30
0.0
 11
28.895257
 21
22.95140148
 31
0.0
  0
LINE
  5
8F
330
18
100
AcDbEntity
  8
0
  6
ByBlock
 62
     7
100
AcDbLine
 10
25.42333039
 20
18.20174799
 30
0.0
 11
25.42333039
 21
20.73859174
 31
0.0
  0
SOLID
  5
90
330
18
100
AcDbEntity
  8
0
  6
ByBlock
 62
     7
100
AcDbTrace
 10
25.32301952
 20
18.20174799
 30
0.0
 11
25.52364126
 21
18.20174799
 31
0.0
 12
25.42333039
 22
17.59988276
 32
0.0
 13
25.42333039
 23
17.59988276
 33
0.0
  0
TEXT
  5
91
330
18
100
AcDbEntity
  8
0
  6
ByBlock
 62
     7
100
AcDbText
 10
28.53487604761905
 20
23.20926671
 30
0.0
 40
0.6879999999999999
  1
N
  7
ROMANS
 72
     4
 11
28.895257
 21
23.55326671
 31
0.0
100
AcDbText
  0
LINE
  5
92
330
18
100
AcDbEntity
  8
0
  6
ByBlock
 62
     7
100
AcDbLine
 10
20.87521715
 20
27.21253033
 30
0.0
 11
26.02519562
 21
27.21253033
 31
0.0
  0
LINE
  5
93
330
18
100
AcDbEntity
  8
0
  6
ByBlock
 62
     7
100
AcDbLine
 10
21.52962618
 20
27.66058556
 30
0.0
 11
29.49712224
 21
27.66058556
 31
0.0
  0
LINE
  5
94
330
18
100
AcDbEntity
  8
0
  6
ByBlock
 62
     7
100
AcDbLine
 10
21.32064519
 20
27.89942097
 30
0.0
 11
21.32064519
 21
33.17172936
 31
0.0
  0
LINE
  5
95
330
18
100
AcDbEntity
  8
0
  6
ByBlock
 62
     7
100
AcDbLine
 10
20.63279921
 20
32.48388338
 30
0.0
 11
15.2064587
 21
32.48388338
 31
0.0
  0
LINE
  5
96
330
18
100
AcDbEntity
  8
0
  6
ByBlock
 62
     7
100
AcDbLine
 10
19.67745757
 20
30.26876147
 30
0.0
 11
15.2064587
 21
30.26876147
 31
0.0
  0
TEXT
  5
97
330
18
100
AcDbEntity
  8
0
  6
ByBlock
 62
     7
100
AcDbText
 10
14.30563467238095
 20
29.92476147
 30
0.0
 40
0.6879999999999999
  1
L
  7
ROMANS
 72
     1
 11
14.63325372
 21
30.26876147
 31
0.0
100
AcDbText
 73
     2
  0
TEXT
  5
98
330
18
100
AcDbEntity
  8
0
  6
ByBlock
 62
     7
100
AcDbText
 10
14.27287276761905
 20
32.13988338
 30
0.0
 40
0.6879999999999999
  1
K
  7
ROMANS
 72
     1
 11
14.63325372
 21
32.48388338
 31
0.0
100
AcDbText
 73
     2
  0
LINE
  5
99
330
18
100
AcDbEntity
  8
0
  6
ByBlock
 62
     7
100
AcDbLine
 10
20.36530355
 20
27.75229835
 30
0.0
 11
20.36530355
 21
30.95660745
 31
0.0
  0
LINE
  5
9A
330
18
100
AcDbEntity
  8
0
 62
     7
100
AcDbLine
 10
21.32064519
 20
27.66058556
 30
0.0
 11
20.63375455
 21
27.66058556
 31
0.0
  0
ARC
  5
9B
330
18
100
AcDbEntity
  8
0
 62
     7
100
AcDbCircle
 10
20.36530355
 20
27.21253033
 30
0.0
 40
0.268451
100
AcDbArc
 50
180.0
 51
0.0
  0
LINE
  5
9C
330
18
100
AcDbEntity
  8
0
 62
     7
100
AcDbLine
 10
20.09685255
 20
27.66058556
 30
0.0
 11
19.40996191
 21
27.66058556
 31
0.0
  0
POINT
  5
9D
330
18
100
AcDbEntity
  8
0
  6
ByBlock
 62
     7
100
AcDbPoint
 10
20.36530355
 20
27.51346295
 30
0.0
  0
LINE
  5
9E
330
18
100
AcDbEntity
  8
0
 62
     7
100
AcDbLine
 10
20.63375455
 20
27.21253033
 30
0.0
 11
20.63375455
 21
27.66058556
 31
0.0
  0
LINE
  5
9F
330
18
100
AcDbEntity
  8
0
 62
     7
100
AcDbLine
 10
20.09685255
 20
27.21253033
 30
0.0
 11
20.09685255
 21
27.66058556
 31
0.0
  0
POINT
  5
A0
330
18
100
AcDbEntity
  8
0
  6
ByBlock
 62
     7
100
AcDbPoint
 10
21.32064519
 20
27.66058556
 30
0.0
  0
POINT
  5
A1
330
18
100
AcDbEntity
  8
0
  6
ByBlock
 62
     7
100
AcDbPoint
 10
21.32064519
 20
27.66058556
 30
0.0
  0
SOLID
  5
A2
330
18
100
AcDbEntity
  8
0
  6
ByBlock
 62
     7
100
AcDbTrace
 10
20.63279921
 20
32.59852437
 30
0.0
 11
20.63279921
 21
32.36924238
 31
0.0
 12
21.32064519
 22
32.48388338
 32
0.0
 13
21.32064519
 23
32.48388338
 33
0.0
  0
SOLID
  5
A3
330
18
100
AcDbEntity
  8
0
  6
ByBlock
 62
     7
100
AcDbTrace
 10
19.67745757
 20
30.38340246
 30
0.0
 11
19.67745757
 21
30.15412047
 31
0.0
 12
20.36530355
 22
30.26876147
 32
0.0
 13
20.36530355
 23
30.26876147
 33
0.0
  0
POINT
  5
A4
330
18
100
AcDbEntity
  8
0
  6
ByBlock
 62
     7
100
AcDbPoint
 10
20.36530355
 20
30.26876147
 30
0.0
  0
POINT
  5
A5
330
18
100
AcDbEntity
  8
0
  6
ByBlock
 62
     7
100
AcDbPoint
 10
21.32064519
 20
32.48388338
 30
0.0
  0
SOLID
  5
A6
330
18
100
AcDbEntity
  8
0
  6
ByBlock
 62
     7
100
AcDbTrace
 10
25.32301952
 20
26.6106651
 30
0.0
 11
25.52364126
 21
26.6106651
 31
0.0
 12
25.42333039
 22
27.21253033
 32
0.0
 13
25.42333039
 23
27.21253033
 33
0.0
  0
POINT
  5
A7
330
18
100
AcDbEntity
  8
0
  6
ByBlock
 62
     7
100
AcDbPoint
 10
25.42333039
 20
27.21253033
 30
0.0
  0
SOLID
  5
A8
330
18
100
AcDbEntity
  8
0
  6
ByBlock
 62
     7
100
AcDbTrace
 10
28.79494613
 20
27.05872033
 30
0.0
 11
28.99556788
 21
27.05872033
 31
0.0
 12
28.895257
 22
27.66058556
 32
0.0
 13
28.895257
 23
27.66058556
 33
0.0
  0
POINT
  5
A9
330
18
100
AcDbEntity
  8
0
  6
ByBlock
 62
     7
100
AcDbPoint
 10
28.895257
 20
27.66058556
 30
0.0
  0
TEXT
  5
AA
330
18
100
AcDbEntity
  8
0
 62
     7
100
AcDbText
 10
47.22989067999999
 20
16.89031937
 30
0.0
 40
0.7053108200000001
  1
K
  7
ROMANS
100
AcDbText
  0
TEXT
  5
AB
330
18
100
AcDbEntity
  8
0
 62
     7
100
AcDbText
 10
47.22989067999999
 20
13.20760805
 30
0.0
 40
0.7053108200000001
  1
N
  7
ROMANS
100
AcDbText
  0
TEXT
  5
AC
330
18
100
AcDbEntity
  8
0
 62
     7
100
AcDbText
 10
47.1425471
 20
10.66311369
 30
0.0
 40
0.7053108200000001
  1
R
  7
ROMANS
100
AcDbText
  0
TEXT
  5
AD
330
18
100
AcDbEntity
  8
0
 62
     7
100
AcDbText
 10
47.1425471
 20
11.84023023
 30
0.0
 40
0.7053108200000001
  1
P
  7
ROMANS
100
AcDbText
  0
TEXT
  5
AE
330
18
100
AcDbEntity
  8
0
 62
     7
100
AcDbText
 10
47.22989067999999
 20
14.4899705
 30
0.0
 40
0.7053108200000001
  1
M
  7
ROMANS
100
AcDbText
  0
TEXT
  5
AF
330
18
100
AcDbEntity
  8
0
 62
     7
100
AcDbText
 10
47.22989067999999
 20
15.66274893
 30
0.0
 40
0.7053108200000001
  1
L
  7
ROMANS
100
AcDbText
  0
TEXT
  5
B0
330
18
100
AcDbEntity
  8
0
 62
     7
100
AcDbText
 10
47.22989067999999
 20
20.6278227
 30
0.0
 40
0.7053108200000001
  1
G
  7
ROMANS
100
AcDbText
  0
TEXT
  5
B1
330
18
100
AcDbEntity
  8
0
 62
     7
100
AcDbText
 10
47.22989067999999
 20
19.34819985
 30
0.0
 40
0.7053108200000001
  1
H
  7
ROMANS
100
AcDbText
  0
TEXT
  5
B2
330
18
100
AcDbEntity
  8
0
 62
     7
100
AcDbText
 10
47.22989067999999
 20
18.11788981
 30
0.0
 40
0.7053108200000001
  1
J
  7
ROMANS
100
AcDbText
  0
TEXT
  5
B3
330
18
100
AcDbEntity
  8
0
 62
     7
100
AcDbText
 10
47.22989067999999
 20
23.13775558
 30
0.0
 40
0.7053108200000001
  1
E
  7
ROMANS
100
AcDbText
  0
TEXT
  5
B4
330
18
100
AcDbEntity
  8
0
 62
     7
100
AcDbText
 10
47.22989067999999
 20
21.90744554
 30
0.0
 40
0.7053108200000001
  1
F
  7
ROMANS
100
AcDbText
  0
TEXT
  5
B5
330
18
100
AcDbEntity
  8
0
 62
     7
100
AcDbText
 10
47.22989067999999
 20
24.31053402
 30
0.0
 40
0.7053108200000001
  1
D
  7
ROMANS
100
AcDbText
  0
TEXT
  5
B6
330
18
100
AcDbEntity
  8
0
 62
     7
100
AcDbText
 10
46.17394930999999
 20
29.48375585
 30
0.0
 40
0.7053108200000001
  1
ITEM
  7
ROMANS
100
AcDbText
  0
TEXT
  5
B7
330
18
100
AcDbEntity
  8
0
 62
     7
100
AcDbText
 10
47.22989067999999
 20
26.8204669
 30
0.0
 40
0.7053108200000001
  1
B
  7
ROMANS
100
AcDbText
  0
TEXT
  5
B8
330
18
100
AcDbEntity
  8
0
 62
     7
100
AcDbText
 10
47.22989067999999
 20
25.64494887
 30
0.0
 40
0.7053108200000001
  1
C
  7
ROMANS
100
AcDbText
  0
TEXT
  5
B9
330
18
100
AcDbEntity
  8
0
 62
     7
100
AcDbText
 10
47.22989067999999
 20
27.99598493
 30
0.0
 40
0.7053108200000001
  1
A
  7
ROMANS
100
AcDbText
  0
LINE
  5
BA
330
18
100
AcDbEntity
  8
0
  6
ByBlock
 62
     7
100
AcDbLine
 10
6.031300569999999
 20
44.55750974999999
 30
0.0
 11
14.13212
 21
44.55750974999999
 31
0.0
  0
LINE
  5
BB
330
18
100
AcDbEntity
  8
0
 62
     7
100
AcDbLine
 10
9.73833634
 20
73.90820447999999
 30
0.0
 11
13.35294913
 21
73.90820447999999
 31
0.0
  0
LINE
  5
BC
330
18
100
AcDbEntity
  8
0
 62
     7
100
AcDbLine
 10
9.73833634
 20
76.77422939
 30
0.0
 11
13.35294913
 21
76.77422939
 31
0.0
  0
ARC
  5
BD
330
18
100
AcDbEntity
  8
0
 62
     7
100
AcDbCircle
 10
14.70532498
 20
75.34121693
 30
0.0
 40
1.97039213
100
AcDbArc
 50
226.65824177
 51
313.34175823
  0
LINE
  5
BE
330
18
100
AcDbEntity
  8
0
 62
     7
100
AcDbLine
 10
10.03759086
 20
47.60669381999999
 30
0.0
 11
13.35294913
 21
47.60669381999999
 31
0.0
  0
LINE
  5
BF
330
18
100
AcDbEntity
  8
0
 62
     7
100
AcDbLine
 10
10.32564569
 20
50.47271873999999
 30
0.0
 11
13.35294913
 21
50.47271873999999
 31
0.0
  0
CIRCLE
  5
C0
330
18
100
AcDbEntity
  8
0
 62
     7
100
AcDbCircle
 10
14.70532498
 20
49.03970627999999
 30
0.0
 40
1.97039213
  0
LINE
  5
C1
330
18
100
AcDbEntity
  8
0
 62
     7
100
AcDbLine
 10
13.10321705
 20
63.89240274
 30
0.0
 11
13.66018123
 21
63.89240274
 31
0.0
  0
LINE
  5
C2
330
18
100
AcDbEntity
  8
0
 62
     7
100
AcDbLine
 10
13.10321705
 20
58.4584195
 30
0.0
 11
13.66018123
 21
58.4584195
 31
0.0
  0
LINE
  5
C3
330
18
100
AcDbEntity
  8
0
 62
     7
100
AcDbLine
 10
10.42061773
 20
70.24041072999999
 30
0.0
 11
10.42061773
 21
71.69945461000001
 31
0.0
  0
LINE
  5
C4
330
18
100
AcDbEntity
  8
0
 62
     7
100
AcDbLine
 10
5.764282579999999
 20
70.24041072999999
 30
0.0
 11
5.764282579999999
 21
71.69945461000001
 31
0.0
  0
ARC
  5
C5
330
18
100
AcDbEntity
  8
0
 62
     7
100
AcDbCircle
 10
12.83954276
 20
61.17541112
 30
0.0
 40
6.80585383
100
AcDbArc
 50
116.30503154
 51
243.69496846
  0
LINE
  5
C6
330
18
100
AcDbEntity
  8
0
 62
     7
100
AcDbLine
 10
5.764282579999999
 20
69.33713192999999
 30
0.0
 11
5.764282579999999
 21
51.64086437
 31
0.0
  0
ARC
  5
C7
330
18
100
AcDbEntity
  8
0
 62
     7
100
AcDbCircle
 10
12.31601554
 20
54.62176747
 30
0.0
 40
1.60115259
100
AcDbArc
 50
90.0
 51
139.55724176
  0
LINE
  5
C8
330
18
100
AcDbEntity
  8
0
 62
     7
100
AcDbLine
 10
9.82126801
 20
54.54153835999999
 30
0.0
 11
9.82126801
 21
60.93657571
 31
0.0
  0
LINE
  5
C9
330
18
100
AcDbEntity
  8
0
 62
     7
100
AcDbLine
 10
10.98308113
 20
54.54153835999999
 30
0.0
 11
10.98308113
 21
60.93657571
 31
0.0
  0
LINE
  5
CA
330
18
100
AcDbEntity
  8
0
  6
ByBlock
 62
     7
100
AcDbLine
 10
5.34345459
 20
50.81760302
 30
0.0
 11
5.34345459
 21
43.86966377
 31
0.0
  0
ARC
  5
CB
330
18
100
AcDbEntity
  8
0
 62
     7
100
AcDbCircle
 10
9.88371573
 20
50.59213643999999
 30
0.0
 40
2.98544262
100
AcDbArc
 50
186.37937021
 51
238.58634169
  0
ARC
  5
CC
330
18
100
AcDbEntity
  8
0
 62
     7
100
AcDbCircle
 10
8.973275149999999
 20
48.26301353
 30
0.0
 40
0.1194177
100
AcDbArc
 50
0.0
 51
180.0
  0
SOLID
  5
CD
330
18
100
AcDbEntity
  8
0
  6
ByBlock
 62
     7
100
AcDbTrace
 10
6.031300569999999
 20
44.67215075
 30
0.0
 11
6.031300569999999
 21
44.44286876
 31
0.0
 12
5.34345459
 22
44.55750974999999
 32
0.0
 13
5.34345459
 23
44.55750974999999
 33
0.0
  0
LINE
  5
CE
330
18
100
AcDbEntity
  8
0
 62
     7
100
AcDbLine
 10
8.07716469
 20
47.24748535999999
 30
0.0
 11
9.86938561
 21
47.24748535999999
 31
0.0
  0
LINE
  5
CF
330
18
100
AcDbEntity
  8
0
 62
     7
100
AcDbLine
 10
8.07716469
 20
46.76981454999999
 30
0.0
 11
9.86938561
 21
46.76981454999999
 31
0.0
  0
ARC
  5
D0
330
18
100
AcDbEntity
  8
0
 62
     7
100
AcDbCircle
 10
8.10359251
 20
47.6773891
 30
0.0
 40
0.42990374
100
AcDbArc
 50
270.0
 51
58.58634169
  0
LINE
  5
D1
330
18
100
AcDbEntity
  8
0
 62
     7
100
AcDbLine
 10
8.70482415
 20
46.82904573
 30
0.0
 11
8.70482415
 21
47.18825418
 31
0.0
  0
ARC
  5
D2
330
18
100
AcDbEntity
  8
0
 62
     7
100
AcDbCircle
 10
8.645592969999999
 20
47.18825418
 30
0.0
 40
0.05923118
100
AcDbArc
 50
0.0
 51
90.0
  0
ARC
  5
D3
330
18
100
AcDbEntity
  8
0
 62
     7
100
AcDbCircle
 10
8.645592969999999
 20
46.82904573
 30
0.0
 40
0.05923118
100
AcDbArc
 50
270.0
 51
0.0
  0
LINE
  5
D4
330
18
100
AcDbEntity
  8
0
 62
     7
100
AcDbLine
 10
9.09269285
 20
47.36690306999999
 30
0.0
 11
9.09269285
 21
48.26301353
 31
0.0
  0
LINE
  5
D5
330
18
100
AcDbEntity
  8
0
 62
     7
100
AcDbLine
 10
8.85385744
 20
47.36690306999999
 30
0.0
 11
8.85385744
 21
48.26301353
 31
0.0
  0
ARC
  5
D6
330
18
100
AcDbEntity
  8
0
 62
     7
100
AcDbCircle
 10
8.734439739999999
 20
47.36690306999999
 30
0.0
 40
0.1194177
100
AcDbArc
 50
270.0
 51
0.0
  0
ARC
  5
D7
330
18
100
AcDbEntity
  8
0
 62
     7
100
AcDbCircle
 10
9.212110559999999
 20
47.36690306999999
 30
0.0
 40
0.1194177
100
AcDbArc
 50
180.0
 51
270.0
  0
LINE
  5
D8
330
18
100
AcDbEntity
  8
0
 62
     7
100
AcDbLine
 10
8.07716469
 20
47.24748535999999
 30
0.0
 11
8.092313689999999
 21
47.24748535999999
 31
0.0
  0
ARC
  5
D9
330
18
100
AcDbEntity
  8
0
 62
     7
100
AcDbCircle
 10
8.07716469
 20
47.18825418
 30
0.0
 40
0.05923118
100
AcDbArc
 50
90.0
 51
180.0
  0
ARC
  5
DA
330
18
100
AcDbEntity
  8
0
 62
     7
100
AcDbCircle
 10
8.07716469
 20
46.82904573
 30
0.0
 40
0.05923118
100
AcDbArc
 50
180.0
 51
270.0
  0
LINE
  5
DB
330
18
100
AcDbEntity
  8
0
 62
     7
100
AcDbLine
 10
8.01793351
 20
47.18825418
 30
0.0
 11
8.01793351
 21
46.82904573
 31
0.0
  0
ARC
  5
DC
330
18
100
AcDbEntity
  8
0
 62
     7
100
AcDbCircle
 10
10.03759086
 20
47.397474
 30
0.0
 40
0.20921982
100
AcDbArc
 50
90.0
 51
231.20196283
  0
LINE
  5
DD
330
18
100
AcDbEntity
  8
0
 62
     7
100
AcDbLine
 10
9.928616789999999
 20
47.18825418
 30
0.0
 11
9.928616789999999
 21
46.83348165
 31
0.0
  0
ARC
  5
DE
330
18
100
AcDbEntity
  8
0
 62
     7
100
AcDbCircle
 10
9.86938561
 20
47.18825418
 30
0.0
 40
0.05923118
100
AcDbArc
 50
0.0
 51
90.0
  0
LINE
  5
DF
330
18
100
AcDbEntity
  8
0
 62
     7
100
AcDbLine
 10
9.241726149999999
 20
46.82904573
 30
0.0
 11
9.241726149999999
 21
47.18825418
 31
0.0
  0
ARC
  5
E0
330
18
100
AcDbEntity
  8
0
 62
     7
100
AcDbCircle
 10
9.300957329999999
 20
46.82904573
 30
0.0
 40
0.05923118
100
AcDbArc
 50
180.0
 51
270.0
  0
ARC
  5
E1
330
18
100
AcDbEntity
  8
0
 62
     7
100
AcDbCircle
 10
9.300957329999999
 20
47.18825418
 30
0.0
 40
0.05923118
100
AcDbArc
 50
90.0
 51
180.0
  0
ARC
  5
E2
330
18
100
AcDbEntity
  8
0
 62
     7
100
AcDbCircle
 10
9.86938561
 20
46.82904573
 30
0.0
 40
0.05923118
100
AcDbArc
 50
270.0
 51
0.0
  0
LINE
  5
E3
330
18
100
AcDbEntity
  8
0
 62
     7
100
AcDbLine
 10
9.928616789999999
 20
46.82904573
 30
0.0
 11
9.928616789999999
 21
46.83348165
 31
0.0
  0
LINE
  5
E4
330
18
100
AcDbEntity
  8
0
 62
     7
100
AcDbLine
 10
9.55182708
 20
50.47271873999999
 30
0.0
 11
6.12158036
 21
50.47271873999999
 31
0.0
  0
LINE
  5
E5
330
18
100
AcDbEntity
  8
0
 62
     7
100
AcDbLine
 10
5.5802937
 20
51.64086437
 30
0.0
 11
7.938358509999999
 21
51.64086437
 31
0.0
  0
LINE
  5
E6
330
18
100
AcDbEntity
  8
0
 62
     7
100
AcDbLine
 10
5.5802937
 20
50.73758557
 30
0.0
 11
7.938358509999999
 21
50.73758557
 31
0.0
  0
LINE
  5
E7
330
18
100
AcDbEntity
  8
0
 62
     7
100
AcDbLine
 10
7.760664969999999
 20
51.55010691
 30
0.0
 11
7.938358509999999
 21
51.55010691
 31
0.0
  0
LINE
  5
E8
330
18
100
AcDbEntity
  8
0
 62
     7
100
AcDbLine
 10
7.760664969999999
 20
50.82834302
 30
0.0
 11
7.938358509999999
 21
50.82834302
 31
0.0
  0
LINE
  5
E9
330
18
100
AcDbEntity
  8
0
 62
     7
100
AcDbLine
 10
8.51403746
 20
51.02681689
 30
0.0
 11
7.670862849999999
 21
51.02681689
 31
0.0
  0
LINE
  5
EA
330
18
100
AcDbEntity
  8
0
 62
     7
100
AcDbLine
 10
8.51403746
 20
51.35163304
 30
0.0
 11
7.670862849999999
 21
51.35163304
 31
0.0
  0
POINT
  5
EB
330
18
100
AcDbEntity
  8
0
  6
ByBlock
 62
     7
100
AcDbPoint
 10
5.34345459
 20
51.05643843
 30
0.0
  0
ARC
  5
EC
330
18
100
AcDbEntity
  8
0
 62
     7
100
AcDbCircle
 10
6.12158036
 20
50.59213643999999
 30
0.0
 40
0.1194177
100
AcDbArc
 50
180.0
 51
270.0
  0
LINE
  5
ED
330
18
100
AcDbEntity
  8
0
 62
     7
100
AcDbLine
 10
6.420602289999999
 20
50.47271873999999
 30
0.0
 11
6.12158036
 21
50.47271873999999
 31
0.0
  0
LINE
  5
EE
330
18
100
AcDbEntity
  8
0
 62
     7
100
AcDbLine
 10
6.002162649999999
 20
50.73758557
 30
0.0
 11
6.002162649999999
 21
50.59213643999999
 31
0.0
  0
LINE
  5
EF
330
18
100
AcDbEntity
  8
0
 62
     7
100
AcDbLine
 10
5.34345459
 20
51.32201151
 30
0.0
 11
5.34345459
 21
51.05643843
 31
0.0
  0
LINE
  5
F0
330
18
100
AcDbEntity
  8
0
 62
     7
100
AcDbLine
 10
5.422029039999999
 20
51.43422744
 30
0.0
 11
5.5802937
 21
51.49183107
 31
0.0
  0
LINE
  5
F1
330
18
100
AcDbEntity
  8
0
 62
     7
100
AcDbLine
 10
5.422029039999999
 20
50.94422249
 30
0.0
 11
5.5802937
 21
50.88661886
 31
0.0
  0
ARC
  5
F2
330
18
100
AcDbEntity
  8
0
 62
     7
100
AcDbCircle
 10
5.462872299999999
 20
51.32201151
 30
0.0
 40
0.1194177
100
AcDbArc
 50
110.0
 51
180.0
  0
ARC
  5
F3
330
18
100
AcDbEntity
  8
0
 62
     7
100
AcDbCircle
 10
5.462872299999999
 20
51.05643843
 30
0.0
 40
0.1194177
100
AcDbArc
 50
180.0
 51
250.0
  0
LINE
  5
F4
330
18
100
AcDbEntity
  8
0
 62
     7
100
AcDbLine
 10
5.5802937
 20
51.49183107
 30
0.0
 11
5.5802937
 21
51.64086437
 31
0.0
  0
LINE
  5
F5
330
18
100
AcDbEntity
  8
0
 62
     7
100
AcDbLine
 10
5.5802937
 20
50.88661886
 30
0.0
 11
5.5802937
 21
50.73758557
 31
0.0
  0
ARC
  5
F6
330
18
100
AcDbEntity
  8
0
 62
     7
100
AcDbCircle
 10
6.67940246
 20
50.23388332999999
 30
0.0
 40
0.23883541
100
AcDbArc
 50
6.37937021
 51
90.0
  0
LINE
  5
F7
330
18
100
AcDbEntity
  8
0
 62
     7
100
AcDbLine
 10
7.670862849999999
 20
51.4603048
 30
0.0
 11
7.670862849999999
 21
50.91814514
 31
0.0
  0
LINE
  5
F8
330
18
100
AcDbEntity
  8
0
 62
     7
100
AcDbLine
 10
7.5801054
 20
51.4603048
 30
0.0
 11
7.5801054
 21
50.91814514
 31
0.0
  0
ARC
  5
F9
330
18
100
AcDbEntity
  8
0
 62
     7
100
AcDbCircle
 10
7.760664969999999
 20
50.91814514
 30
0.0
 40
0.08980211
100
AcDbArc
 50
180.0
 51
270.0
  0
ARC
  5
FA
330
18
100
AcDbEntity
  8
0
 62
     7
100
AcDbCircle
 10
7.760664969999999
 20
51.4603048
 30
0.0
 40
0.08980211
100
AcDbArc
 50
90.0
 51
180.0
  0
ARC
  5
FB
330
18
100
AcDbEntity
  8
0
 62
     7
100
AcDbCircle
 10
7.760664969999999
 20
51.4603048
 30
0.0
 40
0.18055957
100
AcDbArc
 50
90.0
 51
180.0
  0
ARC
  5
FC
330
18
100
AcDbEntity
  8
0
 62
     7
100
AcDbCircle
 10
7.760664969999999
 20
50.91814514
 30
0.0
 40
0.18055957
100
AcDbArc
 50
180.0
 51
270.0
  0
ARC
  5
FD
330
18
100
AcDbEntity
  8
0
 62
     7
100
AcDbCircle
 10
7.77817262
 20
51.18922496999999
 30
0.0
 40
0.33673071
100
AcDbArc
 50
126.02894932
 51
233.9710506799999
  0
LINE
  5
FE
330
18
100
AcDbEntity
  8
0
 62
     7
100
AcDbLine
 10
10.42061773
 20
52.38138179999999
 30
0.0
 11
10.42061773
 21
51.64086437
 31
0.0
  0
LINE
  5
FF
330
18
100
AcDbEntity
  8
0
 62
     7
100
AcDbLine
 10
10.60460661
 20
50.73758557
 30
0.0
 11
8.246541800000001
 21
50.73758557
 31
0.0
  0
LINE
  5
100
330
18
100
AcDbEntity
  8
0
 62
     7
100
AcDbLine
 10
10.60460661
 20
51.64086437
 30
0.0
 11
8.246541800000001
 21
51.64086437
 31
0.0
  0
LINE
  5
101
330
18
100
AcDbEntity
  8
0
 62
     7
100
AcDbLine
 10
7.938358509999999
 20
51.64086437
 30
0.0
 11
7.938358509999999
 21
51.55010691
 31
0.0
  0
LINE
  5
102
330
18
100
AcDbEntity
  8
0
 62
     7
100
AcDbLine
 10
7.938358509999999
 20
50.82834302
 30
0.0
 11
7.938358509999999
 21
50.73758557
 31
0.0
  0
LINE
  5
103
330
18
100
AcDbEntity
  8
0
 62
     7
100
AcDbLine
 10
8.246541800000001
 20
50.82834302
 30
0.0
 11
8.246541800000001
 21
50.73758557
 31
0.0
  0
ARC
  5
104
330
18
100
AcDbEntity
  8
0
 62
     7
100
AcDbCircle
 10
8.42423535
 20
50.91814514
 30
0.0
 40
0.18055957
100
AcDbArc
 50
270.0
 51
0.0
  0
ARC
  5
105
330
18
100
AcDbEntity
  8
0
 62
     7
100
AcDbCircle
 10
8.42423535
 20
51.4603048
 30
0.0
 40
0.18055957
100
AcDbArc
 50
0.0
 51
90.0
  0
ARC
  5
106
330
18
100
AcDbEntity
  8
0
 62
     7
100
AcDbCircle
 10
8.42423535
 20
51.4603048
 30
0.0
 40
0.08980211
100
AcDbArc
 50
0.0
 51
90.0
  0
ARC
  5
107
330
18
100
AcDbEntity
  8
0
 62
     7
100
AcDbCircle
 10
8.42423535
 20
50.91814514
 30
0.0
 40
0.08980211
100
AcDbArc
 50
270.0
 51
0.0
  0
LINE
  5
108
330
18
100
AcDbEntity
  8
0
 62
     7
100
AcDbLine
 10
8.604794919999999
 20
51.4603048
 30
0.0
 11
8.604794919999999
 21
50.91814514
 31
0.0
  0
LINE
  5
109
330
18
100
AcDbEntity
  8
0
 62
     7
100
AcDbLine
 10
8.51403746
 20
51.4603048
 30
0.0
 11
8.51403746
 21
50.91814514
 31
0.0
  0
LINE
  5
10A
330
18
100
AcDbEntity
  8
0
 62
     7
100
AcDbLine
 10
8.42423535
 20
50.82834302
 30
0.0
 11
8.246541800000001
 21
50.82834302
 31
0.0
  0
LINE
  5
10B
330
18
100
AcDbEntity
  8
0
 62
     7
100
AcDbLine
 10
8.42423535
 20
51.55010691
 30
0.0
 11
8.246541800000001
 21
51.55010691
 31
0.0
  0
LINE
  5
10C
330
18
100
AcDbEntity
  8
0
 62
     7
100
AcDbLine
 10
8.246541800000001
 20
51.64086437
 30
0.0
 11
8.246541800000001
 21
51.55010691
 31
0.0
  0
LINE
  5
10D
330
18
100
AcDbEntity
  8
0
 62
     7
100
AcDbLine
 10
9.201883439999999
 20
51.35163304
 30
0.0
 11
8.843630329999999
 21
51.35163304
 31
0.0
  0
LINE
  5
10E
330
18
100
AcDbEntity
  8
0
 62
     7
100
AcDbLine
 10
9.201883439999999
 20
51.02681689
 30
0.0
 11
8.843630329999999
 21
51.02681689
 31
0.0
  0
LINE
  5
10F
330
18
100
AcDbEntity
  8
0
 62
     7
100
AcDbLine
 10
8.843630329999999
 20
51.45767596999999
 30
0.0
 11
8.604794919999999
 21
51.45767596999999
 31
0.0
  0
LINE
  5
110
330
18
100
AcDbEntity
  8
0
 62
     7
100
AcDbLine
 10
8.843630329999999
 20
50.92077397
 30
0.0
 11
8.604794919999999
 21
50.92077397
 31
0.0
  0
LINE
  5
111
330
18
100
AcDbEntity
  8
0
 62
     7
100
AcDbLine
 10
8.843630329999999
 20
51.4603048
 30
0.0
 11
8.843630329999999
 21
50.91814514
 31
0.0
  0
LINE
  5
112
330
18
100
AcDbEntity
  8
0
 62
     7
100
AcDbLine
 10
9.201883439999999
 20
51.35163304
 30
0.0
 11
9.201883439999999
 21
51.02681689
 31
0.0
  0
ARC
  5
113
330
18
100
AcDbEntity
  8
0
 62
     7
100
AcDbCircle
 10
9.55182708
 20
50.95038955999999
 30
0.0
 40
0.47767082
100
AcDbArc
 50
270.0
 51
315.53988625
  0
ARC
  5
114
330
18
100
AcDbEntity
  8
0
 62
     7
100
AcDbCircle
 10
10.32564569
 20
50.65232297
 30
0.0
 40
0.17960423
100
AcDbArc
 50
151.6585592
 51
270.0
  0
LINE
  5
115
330
18
100
AcDbEntity
  8
0
 62
     7
100
AcDbLine
 10
10.60460661
 20
50.88661886
 30
0.0
 11
10.60460661
 21
50.73758557
 31
0.0
  0
LINE
  5
116
330
18
100
AcDbEntity
  8
0
 62
     7
100
AcDbLine
 10
10.60460661
 20
51.49183107
 30
0.0
 11
10.60460661
 21
51.64086437
 31
0.0
  0
ARC
  5
117
330
18
100
AcDbEntity
  8
0
 62
     7
100
AcDbCircle
 10
10.72202802
 20
51.05643843
 30
0.0
 40
0.1194177
100
AcDbArc
 50
290.0
 51
0.0
  0
ARC
  5
118
330
18
100
AcDbEntity
  8
0
 62
     7
100
AcDbCircle
 10
10.72202802
 20
51.32201151
 30
0.0
 40
0.1194177
100
AcDbArc
 50
0.0
 51
70.0
  0
LINE
  5
119
330
18
100
AcDbEntity
  8
0
 62
     7
100
AcDbLine
 10
10.76287128
 20
50.94422249
 30
0.0
 11
10.60460661
 21
50.88661886
 31
0.0
  0
LINE
  5
11A
330
18
100
AcDbEntity
  8
0
 62
     7
100
AcDbLine
 10
10.76287128
 20
51.43422744
 30
0.0
 11
10.60460661
 21
51.49183107
 31
0.0
  0
LINE
  5
11B
330
18
100
AcDbEntity
  8
0
 62
     7
100
AcDbLine
 10
10.84144572
 20
51.32201151
 30
0.0
 11
10.84144572
 21
51.05643843
 31
0.0
  0
ARC
  5
11C
330
18
100
AcDbEntity
  8
0
 62
     7
100
AcDbCircle
 10
10.40217457
 20
54.49072033
 30
0.0
 40
0.47767082
100
AcDbArc
 50
210.0
 51
330.0
  0
LINE
  5
11D
330
18
100
AcDbEntity
  8
0
 62
     7
100
AcDbLine
 10
9.086821499999999
 20
54.69158463
 30
0.0
 11
10.42061773
 21
52.38138179999999
 31
0.0
  0
ARC
  5
11E
330
18
100
AcDbEntity
  8
0
 62
     7
100
AcDbCircle
 10
9.40604491
 20
54.87588835
 30
0.0
 40
0.36860744
100
AcDbArc
 50
61.40780718
 51
210.0
  0
LINE
  5
11F
330
18
100
AcDbEntity
  8
0
 62
     7
100
AcDbLine
 10
9.82126801
 20
54.54153835999999
 30
0.0
 11
9.988499499999999
 21
54.25188492
 31
0.0
  0
ARC
  5
120
330
18
100
AcDbEntity
  8
0
 62
     7
100
AcDbCircle
 10
11.46098478
 20
55.35055665
 30
0.0
 40
0.47767082
100
AcDbArc
 50
139.55724176
 51
180.0
  0
LINE
  5
121
330
18
100
AcDbEntity
  8
0
 62
     7
100
AcDbLine
 10
10.81584963
 20
54.25188492
 30
0.0
 11
10.98308113
 21
54.54153835999999
 31
0.0
  0
LINE
  5
122
330
18
100
AcDbEntity
  8
0
 62
     7
100
AcDbLine
 10
13.10321705
 20
64.95411908
 30
0.0
 11
13.10321705
 21
57.39670315
 31
0.0
  0
LINE
  5
123
330
18
100
AcDbEntity
  8
0
 62
     7
100
AcDbLine
 10
10.98308113
 20
67.80928387
 30
0.0
 11
10.98308113
 21
61.41424653
 31
0.0
  0
LINE
  5
124
330
18
100
AcDbEntity
  8
0
 62
     7
100
AcDbLine
 10
9.82126801
 20
67.80928387
 30
0.0
 11
9.82126801
 21
61.41424653
 31
0.0
  0
LINE
  5
125
330
18
100
AcDbEntity
  8
0
 62
     7
100
AcDbLine
 10
10.04344378
 20
59.98123407
 30
0.0
 11
10.04344378
 21
59.74239866
 31
0.0
  0
LINE
  5
126
330
18
100
AcDbEntity
  8
0
 62
     7
100
AcDbLine
 10
10.76090535
 20
59.98123407
 30
0.0
 11
10.76090535
 21
59.74239866
 31
0.0
  0
LINE
  5
127
330
18
100
AcDbEntity
  8
0
 62
     7
100
AcDbLine
 10
10.76090535
 20
59.74239866
 30
0.0
 11
10.04344378
 21
59.74239866
 31
0.0
  0
ARC
  5
128
330
18
100
AcDbEntity
  8
0
 62
     7
100
AcDbCircle
 10
12.31601554
 20
56.70059088
 30
0.0
 40
0.47767082
100
AcDbArc
 50
270.0
 51
330.0
  0
LINE
  5
129
330
18
100
AcDbEntity
  8
0
 62
     7
100
AcDbLine
 10
12.72969061
 20
56.46175547
 30
0.0
 11
12.9592266
 21
56.85932348
 31
0.0
  0
ARC
  5
12A
330
18
100
AcDbEntity
  8
0
 62
     7
100
AcDbCircle
 10
12.02845771
 20
57.39670315
 30
0.0
 40
1.074759339999999
100
AcDbArc
 50
330.0
 51
0.0
  0
LINE
  5
12B
330
18
100
AcDbEntity
  8
0
 62
     7
100
AcDbLine
 10
10.98308113
 20
61.41424653
 30
0.0
 11
9.82126801
 21
61.41424653
 31
0.0
  0
LINE
  5
12C
330
18
100
AcDbEntity
  8
0
 62
     7
100
AcDbLine
 10
10.76090535
 20
62.36958816
 30
0.0
 11
10.04344378
 21
62.36958816
 31
0.0
  0
LINE
  5
12D
330
18
100
AcDbEntity
  8
0
 62
     7
100
AcDbLine
 10
10.98308113
 20
60.93657571
 30
0.0
 11
9.82126801
 21
60.93657571
 31
0.0
  0
LINE
  5
12E
330
18
100
AcDbEntity
  8
0
 62
     7
100
AcDbLine
 10
10.76090535
 20
59.98123407
 30
0.0
 11
10.04344378
 21
59.98123407
 31
0.0
  0
LINE
  5
12F
330
18
100
AcDbEntity
  8
0
 62
     7
100
AcDbLine
 10
10.76090535
 20
62.60842357
 30
0.0
 11
10.04344378
 21
62.60842357
 31
0.0
  0
LINE
  5
130
330
18
100
AcDbEntity
  8
0
 62
     7
100
AcDbLine
 10
10.61139439
 20
62.96667669
 30
0.0
 11
10.19295475
 21
62.96667669
 31
0.0
  0
LINE
  5
131
330
18
100
AcDbEntity
  8
0
 62
     7
100
AcDbLine
 10
9.984212599999999
 20
62.31035698
 30
0.0
 11
9.984212599999999
 21
61.47347770999999
 31
0.0
  0
LINE
  5
132
330
18
100
AcDbEntity
  8
0
 62
     7
100
AcDbLine
 10
10.04344378
 20
61.41424653
 30
0.0
 11
9.984212599999999
 21
61.47347770999999
 31
0.0
  0
LINE
  5
133
330
18
100
AcDbEntity
  8
0
 62
     7
100
AcDbLine
 10
9.984212599999999
 20
60.04046524999999
 30
0.0
 11
10.04344378
 21
59.98123407
 31
0.0
  0
LINE
  5
134
330
18
100
AcDbEntity
  8
0
 62
     7
100
AcDbLine
 10
10.04344378
 20
60.93657571
 30
0.0
 11
9.984212599999999
 21
60.87734452
 31
0.0
  0
LINE
  5
135
330
18
100
AcDbEntity
  8
0
 62
     7
100
AcDbLine
 10
9.984212599999999
 20
60.04046524999999
 30
0.0
 11
9.984212599999999
 21
60.87734452
 31
0.0
  0
LINE
  5
136
330
18
100
AcDbEntity
  8
0
 62
     7
100
AcDbLine
 10
10.19295475
 20
61.41424653
 30
0.0
 11
10.19295475
 21
60.93657571
 31
0.0
  0
LINE
  5
137
330
18
100
AcDbEntity
  8
0
 62
     7
100
AcDbLine
 10
9.984212599999999
 20
62.31035698
 30
0.0
 11
10.04344378
 21
62.36958816
 31
0.0
  0
LINE
  5
138
330
18
100
AcDbEntity
  8
0
 62
     7
100
AcDbLine
 10
10.19295475
 20
62.96667669
 30
0.0
 11
10.19295475
 21
62.60842357
 31
0.0
  0
LINE
  5
139
330
18
100
AcDbEntity
  8
0
 62
     7
100
AcDbLine
 10
10.04344378
 20
62.60842357
 30
0.0
 11
10.04344378
 21
62.36958816
 31
0.0
  0
LINE
  5
13A
330
18
100
AcDbEntity
  8
0
 62
     7
100
AcDbLine
 10
10.82013653
 20
61.47347770999999
 30
0.0
 11
10.82013653
 21
62.31035698
 31
0.0
  0
LINE
  5
13B
330
18
100
AcDbEntity
  8
0
 62
     7
100
AcDbLine
 10
10.82013653
 20
61.47347770999999
 30
0.0
 11
10.76090535
 21
61.41424653
 31
0.0
  0
LINE
  5
13C
330
18
100
AcDbEntity
  8
0
 62
     7
100
AcDbLine
 10
10.82013653
 20
60.87734452
 30
0.0
 11
10.76090535
 21
60.93657571
 31
0.0
  0
LINE
  5
13D
330
18
100
AcDbEntity
  8
0
 62
     7
100
AcDbLine
 10
10.76090535
 20
59.98123407
 30
0.0
 11
10.82013653
 21
60.04046524999999
 31
0.0
  0
LINE
  5
13E
330
18
100
AcDbEntity
  8
0
 62
     7
100
AcDbLine
 10
10.82013653
 20
60.87734452
 30
0.0
 11
10.82013653
 21
60.04046524999999
 31
0.0
  0
LINE
  5
13F
330
18
100
AcDbEntity
  8
0
 62
     7
100
AcDbLine
 10
10.61139439
 20
61.41424653
 30
0.0
 11
10.61139439
 21
60.93657571
 31
0.0
  0
LINE
  5
140
330
18
100
AcDbEntity
  8
0
 62
     7
100
AcDbLine
 10
10.76090535
 20
62.36958816
 30
0.0
 11
10.82013653
 21
62.31035698
 31
0.0
  0
LINE
  5
141
330
18
100
AcDbEntity
  8
0
 62
     7
100
AcDbLine
 10
10.61139439
 20
62.96667669
 30
0.0
 11
10.61139439
 21
62.60842357
 31
0.0
  0
LINE
  5
142
330
18
100
AcDbEntity
  8
0
 62
     7
100
AcDbLine
 10
10.76090535
 20
62.60842357
 30
0.0
 11
10.76090535
 21
62.36958816
 31
0.0
  0
LINE
  5
143
330
18
100
AcDbEntity
  8
0
 62
     7
100
AcDbLine
 10
8.51403746
 20
69.62636325
 30
0.0
 11
7.670862849999999
 21
69.62636325
 31
0.0
  0
LINE
  5
144
330
18
100
AcDbEntity
  8
0
 62
     7
100
AcDbLine
 10
8.51403746
 20
69.95117941
 30
0.0
 11
7.670862849999999
 21
69.95117941
 31
0.0
  0
LINE
  5
145
330
18
100
AcDbEntity
  8
0
 62
     7
100
AcDbLine
 10
7.760664969999999
 20
70.14965327
 30
0.0
 11
7.938358509999999
 21
70.14965327
 31
0.0
  0
LINE
  5
146
330
18
100
AcDbEntity
  8
0
 62
     7
100
AcDbLine
 10
7.760664969999999
 20
69.42788939
 30
0.0
 11
7.938358509999999
 21
69.42788939
 31
0.0
  0
LINE
  5
147
330
18
100
AcDbEntity
  8
0
 62
     7
100
AcDbLine
 10
5.5802937
 20
70.24041072999999
 30
0.0
 11
7.938358509999999
 21
70.24041072999999
 31
0.0
  0
LINE
  5
148
330
18
100
AcDbEntity
  8
0
 62
     7
100
AcDbLine
 10
5.5802937
 20
69.33713192999999
 30
0.0
 11
7.938358509999999
 21
69.33713192999999
 31
0.0
  0
ARC
  5
149
330
18
100
AcDbEntity
  8
0
 62
     7
100
AcDbCircle
 10
7.77817262
 20
69.78877133000001
 30
0.0
 40
0.33673071
100
AcDbArc
 50
126.02894932
 51
233.9710506799999
  0
LINE
  5
14A
330
18
100
AcDbEntity
  8
0
 62
     7
100
AcDbLine
 10
7.5801054
 20
69.5176915
 30
0.0
 11
7.5801054
 21
70.05985115999999
 31
0.0
  0
LINE
  5
14B
330
18
100
AcDbEntity
  8
0
 62
     7
100
AcDbLine
 10
7.670862849999999
 20
69.5176915
 30
0.0
 11
7.670862849999999
 21
70.05985115999999
 31
0.0
  0
ARC
  5
14C
330
18
100
AcDbEntity
  8
0
 62
     7
100
AcDbCircle
 10
5.462872299999999
 20
69.65598479
 30
0.0
 40
0.1194177
100
AcDbArc
 50
180.0
 51
250.0
  0
LINE
  5
14D
330
18
100
AcDbEntity
  8
0
 62
     7
100
AcDbLine
 10
5.5802937
 20
69.48616523
 30
0.0
 11
5.5802937
 21
69.33713192999999
 31
0.0
  0
LINE
  5
14E
330
18
100
AcDbEntity
  8
0
 62
     7
100
AcDbLine
 10
5.422029039999999
 20
69.54376885000001
 30
0.0
 11
5.5802937
 21
69.48616523
 31
0.0
  0
ARC
  5
14F
330
18
100
AcDbEntity
  8
0
 62
     7
100
AcDbCircle
 10
7.760664969999999
 20
69.5176915
 30
0.0
 40
0.18055957
100
AcDbArc
 50
180.0
 51
270.0
  0
ARC
  5
150
330
18
100
AcDbEntity
  8
0
 62
     7
100
AcDbCircle
 10
7.760664969999999
 20
69.5176915
 30
0.0
 40
0.08980211
100
AcDbArc
 50
180.0
 51
270.0
  0
LINE
  5
151
330
18
100
AcDbEntity
  8
0
 62
     7
100
AcDbLine
 10
5.5802937
 20
70.09137743
 30
0.0
 11
5.5802937
 21
70.24041072999999
 31
0.0
  0
ARC
  5
152
330
18
100
AcDbEntity
  8
0
 62
     7
100
AcDbCircle
 10
5.462872299999999
 20
69.92155787
 30
0.0
 40
0.1194177
100
AcDbArc
 50
110.0
 51
180.0
  0
LINE
  5
153
330
18
100
AcDbEntity
  8
0
 62
     7
100
AcDbLine
 10
5.422029039999999
 20
70.03377380999999
 30
0.0
 11
5.5802937
 21
70.09137743
 31
0.0
  0
LINE
  5
154
330
18
100
AcDbEntity
  8
0
 62
     7
100
AcDbLine
 10
5.34345459
 20
69.65598479
 30
0.0
 11
5.34345459
 21
69.92155787
 31
0.0
  0
ARC
  5
155
330
18
100
AcDbEntity
  8
0
 62
     7
100
AcDbCircle
 10
7.760664969999999
 20
70.05985115999999
 30
0.0
 40
0.18055957
100
AcDbArc
 50
90.0
 51
180.0
  0
ARC
  5
156
330
18
100
AcDbEntity
  8
0
 62
     7
100
AcDbCircle
 10
7.760664969999999
 20
70.05985115999999
 30
0.0
 40
0.08980211
100
AcDbArc
 50
90.0
 51
180.0
  0
ARC
  5
157
330
18
100
AcDbEntity
  8
0
 62
     7
100
AcDbCircle
 10
9.40604491
 20
67.47493387999999
 30
0.0
 40
0.36860744
100
AcDbArc
 50
150.0
 51
298.59219282
  0
LINE
  5
158
330
18
100
AcDbEntity
  8
0
 62
     7
100
AcDbLine
 10
12.72969061
 20
65.88906676
 30
0.0
 11
12.9592266
 21
65.49149875000001
 31
0.0
  0
ARC
  5
159
330
18
100
AcDbEntity
  8
0
 62
     7
100
AcDbCircle
 10
12.02845771
 20
64.95411908
 30
0.0
 40
1.074759339999999
100
AcDbArc
 50
0.0
 51
30.0
  0
ARC
  5
15A
330
18
100
AcDbEntity
  8
0
 62
     7
100
AcDbCircle
 10
12.31601554
 20
67.72905476
 30
0.0
 40
1.60115259
100
AcDbArc
 50
220.44275824
 51
270.0
  0
ARC
  5
15B
330
18
100
AcDbEntity
  8
0
 62
     7
100
AcDbCircle
 10
11.46098478
 20
67.00026558000001
 30
0.0
 40
0.47767082
100
AcDbArc
 50
180.0
 51
220.44275824
  0
ARC
  5
15C
330
18
100
AcDbEntity
  8
0
 62
     7
100
AcDbCircle
 10
12.31601554
 20
65.65023135
 30
0.0
 40
0.47767082
100
AcDbArc
 50
30.0
 51
90.0
  0
ARC
  5
15D
330
18
100
AcDbEntity
  8
0
 62
     7
100
AcDbCircle
 10
10.40217457
 20
67.8601019
 30
0.0
 40
0.47767082
100
AcDbArc
 50
30.0
 51
150.0
  0
LINE
  5
15E
330
18
100
AcDbEntity
  8
0
 62
     7
100
AcDbLine
 10
10.60460661
 20
69.33713192999999
 30
0.0
 11
8.246541800000001
 21
69.33713192999999
 31
0.0
  0
LINE
  5
15F
330
18
100
AcDbEntity
  8
0
 62
     7
100
AcDbLine
 10
10.60460661
 20
70.24041072999999
 30
0.0
 11
8.246541800000001
 21
70.24041072999999
 31
0.0
  0
LINE
  5
160
330
18
100
AcDbEntity
  8
0
 62
     7
100
AcDbLine
 10
8.843630329999999
 20
69.5176915
 30
0.0
 11
8.843630329999999
 21
70.05985115999999
 31
0.0
  0
LINE
  5
161
330
18
100
AcDbEntity
  8
0
 62
     7
100
AcDbLine
 10
8.51403746
 20
69.5176915
 30
0.0
 11
8.51403746
 21
70.05985115999999
 31
0.0
  0
LINE
  5
162
330
18
100
AcDbEntity
  8
0
 62
     7
100
AcDbLine
 10
8.604794919999999
 20
69.5176915
 30
0.0
 11
8.604794919999999
 21
70.05985115999999
 31
0.0
  0
LINE
  5
163
330
18
100
AcDbEntity
  8
0
 62
     7
100
AcDbLine
 10
9.086821499999999
 20
67.65923759999999
 30
0.0
 11
9.833687469999999
 21
68.95284740000001
 31
0.0
  0
LINE
  5
164
330
18
100
AcDbEntity
  8
0
 62
     7
100
AcDbLine
 10
8.843630329999999
 20
69.52032033
 30
0.0
 11
8.604794919999999
 21
69.52032033
 31
0.0
  0
LINE
  5
165
330
18
100
AcDbEntity
  8
0
 62
     7
100
AcDbLine
 10
8.246541800000001
 20
69.33713192999999
 30
0.0
 11
8.246541800000001
 21
69.42788939
 31
0.0
  0
LINE
  5
166
330
18
100
AcDbEntity
  8
0
 62
     7
100
AcDbLine
 10
8.42423535
 20
69.42788939
 30
0.0
 11
8.246541800000001
 21
69.42788939
 31
0.0
  0
ARC
  5
167
330
18
100
AcDbEntity
  8
0
 62
     7
100
AcDbCircle
 10
8.42423535
 20
69.5176915
 30
0.0
 40
0.08980211
100
AcDbArc
 50
270.0
 51
0.0
  0
ARC
  5
168
330
18
100
AcDbEntity
  8
0
 62
     7
100
AcDbCircle
 10
8.42423535
 20
69.5176915
 30
0.0
 40
0.18055957
100
AcDbArc
 50
270.0
 51
0.0
  0
LINE
  5
169
330
18
100
AcDbEntity
  8
0
 62
     7
100
AcDbLine
 10
7.938358509999999
 20
69.33713192999999
 30
0.0
 11
7.938358509999999
 21
69.42788939
 31
0.0
  0
LINE
  5
16A
330
18
100
AcDbEntity
  8
0
 62
     7
100
AcDbLine
 10
10.42061773
 20
69.33713192999999
 30
0.0
 11
10.42061773
 21
69.31110051
 31
0.0
  0
LINE
  5
16B
330
18
100
AcDbEntity
  8
0
 62
     7
100
AcDbLine
 10
10.18178232
 20
69.0722651
 30
0.0
 11
10.040525
 21
69.0722651
 31
0.0
  0
ARC
  5
16C
330
18
100
AcDbEntity
  8
0
 62
     7
100
AcDbCircle
 10
10.18178232
 20
69.31110051
 30
0.0
 40
0.23883541
100
AcDbArc
 50
270.0
 51
0.0
  0
ARC
  5
16D
330
18
100
AcDbEntity
  8
0
 62
     7
100
AcDbCircle
 10
10.040525
 20
68.83342969
 30
0.0
 40
0.23883541
100
AcDbArc
 50
90.0
 51
150.0
  0
LINE
  5
16E
330
18
100
AcDbEntity
  8
0
 62
     7
100
AcDbLine
 10
9.82126801
 20
67.80928387
 30
0.0
 11
9.988499499999999
 21
68.09893730999999
 31
0.0
  0
LINE
  5
16F
330
18
100
AcDbEntity
  8
0
 62
     7
100
AcDbLine
 10
9.201883439999999
 20
69.62636325
 30
0.0
 11
9.201883439999999
 21
69.95117941
 31
0.0
  0
LINE
  5
170
330
18
100
AcDbEntity
  8
0
 62
     7
100
AcDbLine
 10
8.843630329999999
 20
70.05722233
 30
0.0
 11
8.604794919999999
 21
70.05722233
 31
0.0
  0
LINE
  5
171
330
18
100
AcDbEntity
  8
0
 62
     7
100
AcDbLine
 10
9.201883439999999
 20
69.95117941
 30
0.0
 11
8.843630329999999
 21
69.95117941
 31
0.0
  0
LINE
  5
172
330
18
100
AcDbEntity
  8
0
 62
     7
100
AcDbLine
 10
9.201883439999999
 20
69.62636325
 30
0.0
 11
8.843630329999999
 21
69.62636325
 31
0.0
  0
LINE
  5
173
330
18
100
AcDbEntity
  8
0
 62
     7
100
AcDbLine
 10
8.42423535
 20
70.14965327
 30
0.0
 11
8.246541800000001
 21
70.14965327
 31
0.0
  0
ARC
  5
174
330
18
100
AcDbEntity
  8
0
 62
     7
100
AcDbCircle
 10
8.42423535
 20
70.05985115999999
 30
0.0
 40
0.08980211
100
AcDbArc
 50
0.0
 51
90.0
  0
ARC
  5
175
330
18
100
AcDbEntity
  8
0
 62
     7
100
AcDbCircle
 10
8.42423535
 20
70.05985115999999
 30
0.0
 40
0.18055957
100
AcDbArc
 50
0.0
 51
90.0
  0
LINE
  5
176
330
18
100
AcDbEntity
  8
0
 62
     7
100
AcDbLine
 10
8.246541800000001
 20
70.14965327
 30
0.0
 11
8.246541800000001
 21
70.24041072999999
 31
0.0
  0
LINE
  5
177
330
18
100
AcDbEntity
  8
0
 62
     7
100
AcDbLine
 10
7.938358509999999
 20
70.14965327
 30
0.0
 11
7.938358509999999
 21
70.24041072999999
 31
0.0
  0
ARC
  5
178
330
18
100
AcDbEntity
  8
0
 62
     7
100
AcDbCircle
 10
10.72202802
 20
69.65598479
 30
0.0
 40
0.1194177
100
AcDbArc
 50
290.0
 51
0.0
  0
LINE
  5
179
330
18
100
AcDbEntity
  8
0
 62
     7
100
AcDbLine
 10
10.81584963
 20
68.09893730999999
 30
0.0
 11
10.98308113
 21
67.80928387
 31
0.0
  0
LINE
  5
17A
330
18
100
AcDbEntity
  8
0
 62
     7
100
AcDbLine
 10
10.76287128
 20
69.54376885000001
 30
0.0
 11
10.60460661
 21
69.48616523
 31
0.0
  0
LINE
  5
17B
330
18
100
AcDbEntity
  8
0
 62
     7
100
AcDbLine
 10
10.60460661
 20
69.48616523
 30
0.0
 11
10.60460661
 21
69.33713192999999
 31
0.0
  0
LINE
  5
17C
330
18
100
AcDbEntity
  8
0
 62
     7
100
AcDbLine
 10
10.84144572
 20
69.65598479
 30
0.0
 11
10.84144572
 21
69.92155787
 31
0.0
  0
LINE
  5
17D
330
18
100
AcDbEntity
  8
0
 62
     7
100
AcDbLine
 10
10.76287128
 20
70.03377380999999
 30
0.0
 11
10.60460661
 21
70.09137743
 31
0.0
  0
ARC
  5
17E
330
18
100
AcDbEntity
  8
0
 62
     7
100
AcDbCircle
 10
10.72202802
 20
69.92155787
 30
0.0
 40
0.1194177
100
AcDbArc
 50
0.0
 51
70.0
  0
LINE
  5
17F
330
18
100
AcDbEntity
  8
0
 62
     7
100
AcDbLine
 10
10.60460661
 20
70.09137743
 30
0.0
 11
10.60460661
 21
70.24041072999999
 31
0.0
  0
ARC
  5
180
330
18
100
AcDbEntity
  8
0
 62
     7
100
AcDbCircle
 10
9.73833634
 20
73.66936907
 30
0.0
 40
3.10486033
100
AcDbArc
 50
90.0
 51
180.0
  0
ARC
  5
181
330
18
100
AcDbEntity
  8
0
 62
     7
100
AcDbCircle
 10
8.09245016
 20
71.69945461000001
 30
0.0
 40
2.32816757
100
AcDbArc
 50
129.41133444
 51
180.0
  0
ARC
  5
182
330
18
100
AcDbEntity
  8
0
 62
     7
100
AcDbCircle
 10
6.57424484
 20
73.54193266999999
 30
0.0
 40
0.05923118
100
AcDbArc
 50
309.48858546
 51
0.0
  0
LINE
  5
183
330
18
100
AcDbEntity
  8
0
 62
     7
100
AcDbLine
 10
6.633476019999999
 20
73.66936907
 30
0.0
 11
6.633476019999999
 21
73.54193266999999
 31
0.0
  0
ARC
  5
184
330
18
100
AcDbEntity
  8
0
 62
     7
100
AcDbCircle
 10
8.09245016
 20
71.69945461000001
 30
0.0
 40
2.32816757
100
AcDbArc
 50
0.0
 51
50.12085541000001
  0
ARC
  5
185
330
18
100
AcDbEntity
  8
0
 62
     7
100
AcDbCircle
 10
9.73833634
 20
73.66936907
 30
0.0
 40
0.23883541
100
AcDbArc
 50
90.0
 51
230.12085541
  0
LINE
  5
186
330
18
100
AcDbEntity
  8
0
  6
ByBlock
 62
     7
100
AcDbLine
 10
35.02861088072126
 20
76.62376308
 30
0.0
 11
35.02861088072126
 21
62.72855778
 31
0.0
  0
LINE
  5
187
330
18
100
AcDbEntity
  8
0
  6
ByBlock
 62
     7
100
AcDbLine
 10
31.97115849072126
 20
74.65337094999999
 30
0.0
 11
31.97115849072126
 21
61.74336172
 31
0.0
  0
LINE
  5
188
330
18
100
AcDbEntity
  8
0
 62
     7
100
AcDbLine
 10
18.99003223
 20
70.24041072999999
 30
0.0
 11
18.99003223
 21
71.69945461000001
 31
0.0
  0
LINE
  5
189
330
18
100
AcDbEntity
  8
0
 62
     7
100
AcDbLine
 10
23.64636738
 20
70.24041072999999
 30
0.0
 11
23.64636738
 21
71.69945461000001
 31
0.0
  0
LINE
  5
18B
330
18
100
AcDbEntity
  8
0
  6
ByBlock
 62
     7
100
AcDbLine
 10
35.02861088072126
 20
47.45766052999999
 30
0.0
 11
35.02861088072126
 21
61.35286581999999
 31
0.0
  0
LINE
  5
18C
330
18
100
AcDbEntity
  8
0
  6
ByBlock
 62
     7
100
AcDbLine
 10
31.97115849072126
 20
47.45766052999999
 30
0.0
 11
31.97115849072126
 21
60.36766976
 31
0.0
  0
LINE
  5
18D
330
18
100
AcDbEntity
  8
0
 62
     7
100
AcDbLine
 10
23.64636738
 20
69.33713192999999
 30
0.0
 11
23.64636738
 21
51.64086437
 31
0.0
  0
ARC
  5
18E
330
18
100
AcDbEntity
  8
0
 62
     7
100
AcDbCircle
 10
16.5711072
 20
61.17541112
 30
0.0
 40
6.80585383
100
AcDbArc
 50
296.30503154
 51
63.69496846
  0
ARC
  5
18F
330
18
100
AcDbEntity
  8
0
 62
     7
100
AcDbCircle
 10
17.09463442
 20
54.62176747
 30
0.0
 40
1.60115259
100
AcDbArc
 50
40.44275824
 51
90.0
  0
LINE
  5
190
330
18
100
AcDbEntity
  8
0
 62
     7
100
AcDbLine
 10
18.42756884
 20
54.54153835999999
 30
0.0
 11
18.42756884
 21
60.93657571
 31
0.0
  0
LINE
  5
191
330
18
100
AcDbEntity
  8
0
 62
     7
100
AcDbLine
 10
19.58938195
 20
54.54153835999999
 30
0.0
 11
19.58938195
 21
60.93657571
 31
0.0
  0
LINE
  5
192
330
18
100
AcDbEntity
  8
0
  6
ByBlock
 62
     7
100
AcDbLine
 10
21.57232068
 20
46.76981454999999
 30
0.0
 11
35.71645686072125
 21
46.76981454999999
 31
0.0
  0
LINE
  5
193
330
18
100
AcDbEntity
  8
0
  6
ByBlock
 62
     7
100
AcDbLine
 10
21.57232068
 20
46.76981454999999
 30
0.0
 11
32.65900447072126
 21
46.76981454999999
 31
0.0
  0
LINE
  5
194
330
18
100
AcDbEntity
  8
0
  6
ByBlock
 62
     7
100
AcDbLine
 10
15.24509301
 20
49.03970627999999
 30
0.0
 11
26.712156
 21
49.03970627999999
 31
0.0
  0
LINE
  5
195
330
18
100
AcDbEntity
  8
0
  6
ByBlock
 62
     7
100
AcDbLine
 10
21.57232068
 20
46.76981454999999
 30
0.0
 11
26.712156
 21
46.76981454999999
 31
0.0
  0
SOLID
  5
196
330
18
100
AcDbEntity
  8
0
  6
ByBlock
 62
     7
100
AcDbTrace
 10
23.37934939
 20
44.67215075
 30
0.0
 11
23.37934939
 21
44.44286876
 31
0.0
 12
24.06719537
 22
44.55750974999999
 32
0.0
 13
24.06719537
 23
44.55750974999999
 33
0.0
  0
LINE
  5
197
330
18
100
AcDbEntity
  8
0
 62
     7
100
AcDbLine
 10
23.98862093
 20
50.94422249
 30
0.0
 11
23.83035626
 21
50.88661886
 31
0.0
  0
LINE
  5
198
330
18
100
AcDbEntity
  8
0
 62
     7
100
AcDbLine
 10
23.98862093
 20
51.43422744
 30
0.0
 11
23.83035626
 21
51.49183107
 31
0.0
  0
ARC
  5
19A
330
18
100
AcDbEntity
  8
0
 62
     7
100
AcDbCircle
 10
20.43737481
 20
48.26301353
 30
0.0
 40
0.1194177
100
AcDbArc
 50
0.0
 51
180.0
  0
ARC
  5
19B
330
18
100
AcDbEntity
  8
0
 62
     7
100
AcDbCircle
 10
19.52693423
 20
50.59213643999999
 30
0.0
 40
2.98544262
100
AcDbArc
 50
301.41365831
 51
353.62062979
  0
CIRCLE
  5
19C
330
18
100
AcDbEntity
  8
0
 62
     7
100
AcDbCircle
 10
14.70532498
 20
49.03970627999999
 30
0.0
 40
1.194177049999999
  0
LINE
  5
19D
330
18
100
AcDbEntity
  8
0
  6
ByBlock
 62
     7
100
AcDbLine
 10
23.37934939
 20
44.55750974999999
 30
0.0
 11
15.27852996
 21
44.55750974999999
 31
0.0
  0
LINE
  5
19E
330
18
100
AcDbEntity
  8
0
 62
     7
100
AcDbLine
 10
19.3730591
 20
47.60669381999999
 30
0.0
 11
16.05770083
 21
47.60669381999999
 31
0.0
  0
LINE
  5
19F
330
18
100
AcDbEntity
  8
0
 62
     7
100
AcDbLine
 10
15.61744594
 20
47.56218840999999
 30
0.0
 11
21.49939688
 21
42.24306176999999
 31
0.0
  0
TEXT
  5
1A0
330
18
100
AcDbEntity
  8
0
  6
ByBlock
 62
     7
100
AcDbText
 10
14.41046783714285
 20
44.21350975
 30
0.0
 40
0.6879999999999999
  1
A
  7
ROMANS
 72
     1
 11
14.70532498
 21
44.55750974999999
 31
0.0
100
AcDbText
 73
     2
  0
SOLID
  5
1A1
330
18
100
AcDbEntity
  8
0
 62
     7
100
AcDbTrace
 10
15.55665363
 20
47.48239765
 30
0.0
 11
15.67823824
 21
47.64197917999999
 31
0.0
 12
15.13870134
 22
47.92694226
 32
0.0
 13
15.13870134
 23
47.92694226
 33
0.0
  0
LINE
  5
1A2
330
18
100
AcDbEntity
  8
0
 62
     7
100
AcDbLine
 10
21.49939688
 20
42.24306176999999
 30
0.0
 11
22.59419395
 21
42.24306176999999
 31
0.0
  0
LINE
  5
1A3
330
18
100
AcDbEntity
  8
0
 62
     7
100
AcDbLine
 10
21.33348527
 20
46.76981454999999
 30
0.0
 11
19.54126436
 21
46.76981454999999
 31
0.0
  0
LINE
  5
1A4
330
18
100
AcDbEntity
  8
0
 62
     7
100
AcDbLine
 10
21.33348527
 20
47.24748535999999
 30
0.0
 11
19.54126436
 21
47.24748535999999
 31
0.0
  0
ARC
  5
1A5
330
18
100
AcDbEntity
  8
0
 62
     7
100
AcDbCircle
 10
21.30705746
 20
47.6773891
 30
0.0
 40
0.42990374
100
AcDbArc
 50
121.41365831
 51
270.0
  0
LINE
  5
1A6
330
18
100
AcDbEntity
  8
0
 62
     7
100
AcDbLine
 10
19.48203317
 20
46.82904573
 30
0.0
 11
19.48203317
 21
46.83348165
 31
0.0
  0
ARC
  5
1A7
330
18
100
AcDbEntity
  8
0
 62
     7
100
AcDbCircle
 10
19.54126436
 20
46.82904573
 30
0.0
 40
0.05923118
100
AcDbArc
 50
180.0
 51
270.0
  0
ARC
  5
1A8
330
18
100
AcDbEntity
  8
0
 62
     7
100
AcDbCircle
 10
19.54126436
 20
47.18825418
 30
0.0
 40
0.05923118
100
AcDbArc
 50
90.0
 51
180.0
  0
LINE
  5
1A9
330
18
100
AcDbEntity
  8
0
 62
     7
100
AcDbLine
 10
19.48203317
 20
47.18825418
 30
0.0
 11
19.48203317
 21
46.83348165
 31
0.0
  0
ARC
  5
1AA
330
18
100
AcDbEntity
  8
0
 62
     7
100
AcDbCircle
 10
19.3730591
 20
47.397474
 30
0.0
 40
0.20921982
100
AcDbArc
 50
308.79803717
 51
90.0
  0
ARC
  5
1AB
330
18
100
AcDbEntity
  8
0
 62
     7
100
AcDbCircle
 10
20.1985394
 20
47.36690306999999
 30
0.0
 40
0.1194177
100
AcDbArc
 50
270.0
 51
0.0
  0
ARC
  5
1AC
330
18
100
AcDbEntity
  8
0
 62
     7
100
AcDbCircle
 10
20.67621022
 20
47.36690306999999
 30
0.0
 40
0.1194177
100
AcDbArc
 50
180.0
 51
270.0
  0
LINE
  5
1AD
330
18
100
AcDbEntity
  8
0
 62
     7
100
AcDbLine
 10
20.55679252
 20
47.36690306999999
 30
0.0
 11
20.55679252
 21
48.26301353
 31
0.0
  0
LINE
  5
1AE
330
18
100
AcDbEntity
  8
0
 62
     7
100
AcDbLine
 10
20.31795711
 20
47.36690306999999
 30
0.0
 11
20.31795711
 21
48.26301353
 31
0.0
  0
ARC
  5
1AF
330
18
100
AcDbEntity
  8
0
 62
     7
100
AcDbCircle
 10
20.10969263
 20
47.18825418
 30
0.0
 40
0.05923118
100
AcDbArc
 50
0.0
 51
90.0
  0
ARC
  5
1B0
330
18
100
AcDbEntity
  8
0
 62
     7
100
AcDbCircle
 10
20.10969263
 20
46.82904573
 30
0.0
 40
0.05923118
100
AcDbArc
 50
270.0
 51
0.0
  0
ARC
  5
1B1
330
18
100
AcDbEntity
  8
0
 62
     7
100
AcDbCircle
 10
20.765057
 20
46.82904573
 30
0.0
 40
0.05923118
100
AcDbArc
 50
180.0
 51
270.0
  0
ARC
  5
1B2
330
18
100
AcDbEntity
  8
0
 62
     7
100
AcDbCircle
 10
20.765057
 20
47.18825418
 30
0.0
 40
0.05923118
100
AcDbArc
 50
90.0
 51
180.0
  0
LINE
  5
1B3
330
18
100
AcDbEntity
  8
0
 62
     7
100
AcDbLine
 10
20.16892381
 20
46.82904573
 30
0.0
 11
20.16892381
 21
47.18825418
 31
0.0
  0
LINE
  5
1B4
330
18
100
AcDbEntity
  8
0
 62
     7
100
AcDbLine
 10
20.70582581
 20
46.82904573
 30
0.0
 11
20.70582581
 21
47.18825418
 31
0.0
  0
POINT
  5
1B5
330
18
100
AcDbEntity
  8
0
  6
ByBlock
 62
     7
100
AcDbPoint
 10
21.33348527
 20
46.76981454999999
 30
0.0
  0
POINT
  5
1B6
330
18
100
AcDbEntity
  8
0
  6
ByBlock
 62
     7
100
AcDbPoint
 10
21.33348527
 20
46.76981454999999
 30
0.0
  0
POINT
  5
1B7
330
18
100
AcDbEntity
  8
0
  6
ByBlock
 62
     7
100
AcDbPoint
 10
21.33348527
 20
46.76981454999999
 30
0.0
  0
LINE
  5
1B8
330
18
100
AcDbEntity
  8
0
 62
     7
100
AcDbLine
 10
21.39271645
 20
47.18825418
 30
0.0
 11
21.39271645
 21
46.82904573
 31
0.0
  0
ARC
  5
1B9
330
18
100
AcDbEntity
  8
0
 62
     7
100
AcDbCircle
 10
21.33348527
 20
46.82904573
 30
0.0
 40
0.05923118
100
AcDbArc
 50
270.0
 51
0.0
  0
ARC
  5
1BA
330
18
100
AcDbEntity
  8
0
 62
     7
100
AcDbCircle
 10
21.33348527
 20
47.18825418
 30
0.0
 40
0.05923118
100
AcDbArc
 50
0.0
 51
90.0
  0
LINE
  5
1BB
330
18
100
AcDbEntity
  8
0
 62
     7
100
AcDbLine
 10
21.33348527
 20
47.24748535999999
 30
0.0
 11
21.31833628
 21
47.24748535999999
 31
0.0
  0
LINE
  5
1BC
330
18
100
AcDbEntity
  8
0
 62
     7
100
AcDbLine
 10
19.08500427
 20
50.47271873999999
 30
0.0
 11
16.05770083
 21
50.47271873999999
 31
0.0
  0
LINE
  5
1BD
330
18
100
AcDbEntity
  8
0
 62
     7
100
AcDbLine
 10
18.59480033
 20
54.25188492
 30
0.0
 11
18.42756884
 21
54.54153835999999
 31
0.0
  0
ARC
  5
1BE
330
18
100
AcDbEntity
  8
0
 62
     7
100
AcDbCircle
 10
18.68862194
 20
51.32201151
 30
0.0
 40
0.1194177
100
AcDbArc
 50
110.0
 51
180.0
  0
ARC
  5
1BF
330
18
100
AcDbEntity
  8
0
 62
     7
100
AcDbCircle
 10
18.68862194
 20
51.05643843
 30
0.0
 40
0.1194177
100
AcDbArc
 50
180.0
 51
250.0
  0
LINE
  5
1C0
330
18
100
AcDbEntity
  8
0
 62
     7
100
AcDbLine
 10
14.40439236
 20
49.03970627999999
 30
0.0
 11
15.0062576
 21
49.03970627999999
 31
0.0
  0
POINT
  5
1C1
330
18
100
AcDbEntity
  8
0
  6
ByBlock
 62
     7
100
AcDbPoint
 10
15.0062576
 20
49.03970627999999
 30
0.0
  0
LINE
  5
1C2
330
18
100
AcDbEntity
  8
0
 62
     7
100
AcDbLine
 10
14.70532498
 20
48.73877366
 30
0.0
 11
14.70532498
 21
49.3406389
 31
0.0
  0
ARC
  5
1C3
330
18
100
AcDbEntity
  8
0
 62
     7
100
AcDbCircle
 10
17.94966519
 20
55.35055665
 30
0.0
 40
0.47767082
100
AcDbArc
 50
0.0
 51
40.44275824
  0
LINE
  5
1C4
330
18
100
AcDbEntity
  8
0
 62
     7
100
AcDbLine
 10
18.99003223
 20
52.38138179999999
 30
0.0
 11
18.99003223
 21
51.64086437
 31
0.0
  0
LINE
  5
1C5
330
18
100
AcDbEntity
  8
0
 62
     7
100
AcDbLine
 10
19.85882288
 20
50.47271873999999
 30
0.0
 11
23.2890696
 21
50.47271873999999
 31
0.0
  0
LINE
  5
1C6
330
18
100
AcDbEntity
  8
0
 62
     7
100
AcDbLine
 10
20.8966125
 20
51.35163304
 30
0.0
 11
21.73978711
 21
51.35163304
 31
0.0
  0
LINE
  5
1C7
330
18
100
AcDbEntity
  8
0
 62
     7
100
AcDbLine
 10
20.8966125
 20
51.02681689
 30
0.0
 11
21.73978711
 21
51.02681689
 31
0.0
  0
LINE
  5
1C8
330
18
100
AcDbEntity
  8
0
 62
     7
100
AcDbLine
 10
18.80604335
 20
51.64086437
 30
0.0
 11
21.16410816
 21
51.64086437
 31
0.0
  0
LINE
  5
1C9
330
18
100
AcDbEntity
  8
0
 62
     7
100
AcDbLine
 10
18.80604335
 20
50.73758557
 30
0.0
 11
21.16410816
 21
50.73758557
 31
0.0
  0
ARC
  5
1CA
330
18
100
AcDbEntity
  8
0
 62
     7
100
AcDbCircle
 10
19.08500427
 20
50.65232297
 30
0.0
 40
0.17960423
100
AcDbArc
 50
270.0
 51
28.3414408
  0
ARC
  5
1CB
330
18
100
AcDbEntity
  8
0
 62
     7
100
AcDbCircle
 10
19.85882288
 20
50.95038955999999
 30
0.0
 40
0.47767082
100
AcDbArc
 50
224.46011375
 51
270.0
  0
LINE
  5
1CC
330
18
100
AcDbEntity
  8
0
 62
     7
100
AcDbLine
 10
18.56920424
 20
51.32201151
 30
0.0
 11
18.56920424
 21
51.05643843
 31
0.0
  0
LINE
  5
1CD
330
18
100
AcDbEntity
  8
0
 62
     7
100
AcDbLine
 10
18.64777868
 20
51.43422744
 30
0.0
 11
18.80604335
 21
51.49183107
 31
0.0
  0
LINE
  5
1CE
330
18
100
AcDbEntity
  8
0
 62
     7
100
AcDbLine
 10
18.64777868
 20
50.94422249
 30
0.0
 11
18.80604335
 21
50.88661886
 31
0.0
  0
LINE
  5
1CF
330
18
100
AcDbEntity
  8
0
 62
     7
100
AcDbLine
 10
18.80604335
 20
51.49183107
 30
0.0
 11
18.80604335
 21
51.64086437
 31
0.0
  0
LINE
  5
1D0
330
18
100
AcDbEntity
  8
0
 62
     7
100
AcDbLine
 10
18.80604335
 20
50.88661886
 30
0.0
 11
18.80604335
 21
50.73758557
 31
0.0
  0
LINE
  5
1D1
330
18
100
AcDbEntity
  8
0
 62
     7
100
AcDbLine
 10
20.20876652
 20
51.35163304
 30
0.0
 11
20.20876652
 21
51.02681689
 31
0.0
  0
LINE
  5
1D2
330
18
100
AcDbEntity
  8
0
 62
     7
100
AcDbLine
 10
20.56701963
 20
51.4603048
 30
0.0
 11
20.56701963
 21
50.91814514
 31
0.0
  0
LINE
  5
1D3
330
18
100
AcDbEntity
  8
0
 62
     7
100
AcDbLine
 10
20.56701963
 20
50.92077397
 30
0.0
 11
20.80585504
 21
50.92077397
 31
0.0
  0
LINE
  5
1D4
330
18
100
AcDbEntity
  8
0
 62
     7
100
AcDbLine
 10
20.56701963
 20
51.45767596999999
 30
0.0
 11
20.80585504
 21
51.45767596999999
 31
0.0
  0
LINE
  5
1D5
330
18
100
AcDbEntity
  8
0
 62
     7
100
AcDbLine
 10
20.20876652
 20
51.02681689
 30
0.0
 11
20.56701963
 21
51.02681689
 31
0.0
  0
LINE
  5
1D6
330
18
100
AcDbEntity
  8
0
 62
     7
100
AcDbLine
 10
20.20876652
 20
51.35163304
 30
0.0
 11
20.56701963
 21
51.35163304
 31
0.0
  0
LINE
  5
1D7
330
18
100
AcDbEntity
  8
0
 62
     7
100
AcDbLine
 10
21.16410816
 20
51.64086437
 30
0.0
 11
21.16410816
 21
51.55010691
 31
0.0
  0
LINE
  5
1D8
330
18
100
AcDbEntity
  8
0
 62
     7
100
AcDbLine
 10
20.98641461
 20
51.55010691
 30
0.0
 11
21.16410816
 21
51.55010691
 31
0.0
  0
LINE
  5
1D9
330
18
100
AcDbEntity
  8
0
 62
     7
100
AcDbLine
 10
20.98641461
 20
50.82834302
 30
0.0
 11
21.16410816
 21
50.82834302
 31
0.0
  0
LINE
  5
1DA
330
18
100
AcDbEntity
  8
0
 62
     7
100
AcDbLine
 10
20.8966125
 20
51.4603048
 30
0.0
 11
20.8966125
 21
50.91814514
 31
0.0
  0
LINE
  5
1DB
330
18
100
AcDbEntity
  8
0
 62
     7
100
AcDbLine
 10
20.80585504
 20
51.4603048
 30
0.0
 11
20.80585504
 21
50.91814514
 31
0.0
  0
ARC
  5
1DC
330
18
100
AcDbEntity
  8
0
 62
     7
100
AcDbCircle
 10
20.98641461
 20
50.91814514
 30
0.0
 40
0.08980211
100
AcDbArc
 50
180.0
 51
270.0
  0
ARC
  5
1DD
330
18
100
AcDbEntity
  8
0
 62
     7
100
AcDbCircle
 10
20.98641461
 20
51.4603048
 30
0.0
 40
0.08980211
100
AcDbArc
 50
90.0
 51
180.0
  0
ARC
  5
1DE
330
18
100
AcDbEntity
  8
0
 62
     7
100
AcDbCircle
 10
20.98641461
 20
51.4603048
 30
0.0
 40
0.18055957
100
AcDbArc
 50
90.0
 51
180.0
  0
ARC
  5
1DF
330
18
100
AcDbEntity
  8
0
 62
     7
100
AcDbCircle
 10
20.98641461
 20
50.91814514
 30
0.0
 40
0.18055957
100
AcDbArc
 50
180.0
 51
270.0
  0
LINE
  5
1E0
330
18
100
AcDbEntity
  8
0
 62
     7
100
AcDbLine
 10
21.16410816
 20
50.82834302
 30
0.0
 11
21.16410816
 21
50.73758557
 31
0.0
  0
ARC
  5
1E1
330
18
100
AcDbEntity
  8
0
 62
     7
100
AcDbCircle
 10
22.7312475
 20
50.23388332999999
 30
0.0
 40
0.23883541
100
AcDbArc
 50
90.0
 51
173.62062979
  0
LINE
  5
1E2
330
18
100
AcDbEntity
  8
0
 62
     7
100
AcDbLine
 10
23.83035626
 20
50.73758557
 30
0.0
 11
21.47229145
 21
50.73758557
 31
0.0
  0
LINE
  5
1E3
330
18
100
AcDbEntity
  8
0
 62
     7
100
AcDbLine
 10
23.83035626
 20
51.64086437
 30
0.0
 11
21.47229145
 21
51.64086437
 31
0.0
  0
ARC
  5
1E4
330
18
100
AcDbEntity
  8
0
 62
     7
100
AcDbCircle
 10
21.63247734
 20
51.18922496999999
 30
0.0
 40
0.33673071
100
AcDbArc
 50
306.02894932
 51
53.97105068000001
  0
LINE
  5
1E5
330
18
100
AcDbEntity
  8
0
 62
     7
100
AcDbLine
 10
21.47229145
 20
50.82834302
 30
0.0
 11
21.47229145
 21
50.73758557
 31
0.0
  0
ARC
  5
1E6
330
18
100
AcDbEntity
  8
0
 62
     7
100
AcDbCircle
 10
21.649985
 20
50.91814514
 30
0.0
 40
0.18055957
100
AcDbArc
 50
270.0
 51
0.0
  0
ARC
  5
1E7
330
18
100
AcDbEntity
  8
0
 62
     7
100
AcDbCircle
 10
21.649985
 20
51.4603048
 30
0.0
 40
0.18055957
100
AcDbArc
 50
0.0
 51
90.0
  0
ARC
  5
1E8
330
18
100
AcDbEntity
  8
0
 62
     7
100
AcDbCircle
 10
21.649985
 20
51.4603048
 30
0.0
 40
0.08980211
100
AcDbArc
 50
0.0
 51
90.0
  0
ARC
  5
1E9
330
18
100
AcDbEntity
  8
0
 62
     7
100
AcDbCircle
 10
21.649985
 20
50.91814514
 30
0.0
 40
0.08980211
100
AcDbArc
 50
270.0
 51
0.0
  0
LINE
  5
1EA
330
18
100
AcDbEntity
  8
0
 62
     7
100
AcDbLine
 10
21.83054457
 20
51.4603048
 30
0.0
 11
21.83054457
 21
50.91814514
 31
0.0
  0
LINE
  5
1EB
330
18
100
AcDbEntity
  8
0
 62
     7
100
AcDbLine
 10
21.73978711
 20
51.4603048
 30
0.0
 11
21.73978711
 21
50.91814514
 31
0.0
  0
LINE
  5
1EC
330
18
100
AcDbEntity
  8
0
 62
     7
100
AcDbLine
 10
21.649985
 20
50.82834302
 30
0.0
 11
21.47229145
 21
50.82834302
 31
0.0
  0
LINE
  5
1ED
330
18
100
AcDbEntity
  8
0
 62
     7
100
AcDbLine
 10
21.649985
 20
51.55010691
 30
0.0
 11
21.47229145
 21
51.55010691
 31
0.0
  0
LINE
  5
1EE
330
18
100
AcDbEntity
  8
0
 62
     7
100
AcDbLine
 10
21.47229145
 20
51.64086437
 30
0.0
 11
21.47229145
 21
51.55010691
 31
0.0
  0
LINE
  5
1EF
330
18
100
AcDbEntity
  8
0
 62
     7
100
AcDbLine
 10
23.40848731
 20
50.73758557
 30
0.0
 11
23.40848731
 21
50.59213643999999
 31
0.0
  0
LINE
  5
1F0
330
18
100
AcDbEntity
  8
0
 62
     7
100
AcDbLine
 10
22.99004767
 20
50.47271873999999
 30
0.0
 11
23.2890696
 21
50.47271873999999
 31
0.0
  0
ARC
  5
1F1
330
18
100
AcDbEntity
  8
0
 62
     7
100
AcDbCircle
 10
23.2890696
 20
50.59213643999999
 30
0.0
 40
0.1194177
100
AcDbArc
 50
270.0
 51
0.0
  0
LINE
  5
1F2
330
18
100
AcDbEntity
  8
0
 62
     7
100
AcDbLine
 10
23.83035626
 20
50.88661886
 30
0.0
 11
23.83035626
 21
50.73758557
 31
0.0
  0
LINE
  5
1F3
330
18
100
AcDbEntity
  8
0
 62
     7
100
AcDbLine
 10
23.83035626
 20
51.49183107
 30
0.0
 11
23.83035626
 21
51.64086437
 31
0.0
  0
LINE
  5
1F4
330
18
100
AcDbEntity
  8
0
 62
     7
100
AcDbLine
 10
20.32382846
 20
54.69158463
 30
0.0
 11
18.99003223
 21
52.38138179999999
 31
0.0
  0
ARC
  5
1F5
330
18
100
AcDbEntity
  8
0
 62
     7
100
AcDbCircle
 10
19.0084754
 20
54.49072033
 30
0.0
 40
0.47767082
100
AcDbArc
 50
210.0
 51
330.0
  0
ARC
  5
1F6
330
18
100
AcDbEntity
  8
0
 62
     7
100
AcDbCircle
 10
20.00460505
 20
54.87588835
 30
0.0
 40
0.36860744
100
AcDbArc
 50
330.0
 51
118.59219282
  0
LINE
  5
1F7
330
18
100
AcDbEntity
  8
0
 62
     7
100
AcDbLine
 10
19.58938195
 20
54.54153835999999
 30
0.0
 11
19.42215046
 21
54.25188492
 31
0.0
  0
LINE
  5
1F8
330
18
100
AcDbEntity
  8
0
  6
ByBlock
 62
     7
100
AcDbLine
 10
24.06719537
 20
50.81760302
 30
0.0
 11
24.06719537
 21
43.86966377
 31
0.0
  0
SOLID
  5
1F9
330
18
100
AcDbEntity
  8
0
  6
ByBlock
 62
     7
100
AcDbTrace
 10
25.90966903
 20
46.08196857
 30
0.0
 11
26.13895102
 21
46.08196857
 31
0.0
 12
26.02431002
 22
46.76981454999999
 32
0.0
 13
26.02431002
 23
46.76981454999999
 33
0.0
  0
POINT
  5
1FA
330
18
100
AcDbEntity
  8
0
  6
ByBlock
 62
     7
100
AcDbPoint
 10
24.06719537
 20
44.55750974999999
 30
0.0
  0
LINE
  5
1FB
330
18
100
AcDbEntity
  8
0
  6
ByBlock
 62
     7
100
AcDbLine
 10
26.02431002
 20
46.08196857
 30
0.0
 11
26.02431002
 21
45.39412259
 31
0.0
  0
TEXT
  5
1FC
330
18
100
AcDbEntity
  8
0
  6
ByBlock
 62
     7
100
AcDbText
 10
25.66392906761905
 20
47.56076041
 30
0.0
 40
0.6879999999999999
  1
B
  7
ROMANS
 72
     1
 11
26.02431002
 21
47.90476041
 31
0.0
100
AcDbText
 73
     2
  0
SOLID
  5
1FD
330
18
100
AcDbEntity
  8
0
  6
ByBlock
 62
     7
100
AcDbTrace
 10
31.85651750072126
 20
47.45766052999999
 30
0.0
 11
32.08579949072126
 21
47.45766052999999
 31
0.0
 12
31.97115849072126
 22
46.76981454999999
 32
0.0
 13
31.97115849072126
 23
46.76981454999999
 33
0.0
  0
SOLID
  5
1FE
330
18
100
AcDbEntity
  8
0
  6
ByBlock
 62
     7
100
AcDbTrace
 10
34.91396989072125
 20
47.45766052999999
 30
0.0
 11
35.14325188072125
 21
47.45766052999999
 31
0.0
 12
35.02861088072126
 22
46.76981454999999
 32
0.0
 13
35.02861088072126
 23
46.76981454999999
 33
0.0
  0
LINE
  5
1FF
330
18
100
AcDbEntity
  8
0
  6
ByBlock
 62
     7
100
AcDbLine
 10
26.02431002
 20
49.72755226
 30
0.0
 11
26.02431002
 21
50.41539824
 31
0.0
  0
POINT
  5
200
330
18
100
AcDbEntity
  8
0
  6
ByBlock
 62
     7
100
AcDbPoint
 10
26.02431002
 20
49.03970627999999
 30
0.0
  0
SOLID
  5
201
330
18
100
AcDbEntity
  8
0
  6
ByBlock
 62
     7
100
AcDbTrace
 10
25.90966903
 20
49.72755226
 30
0.0
 11
26.13895102
 21
49.72755226
 31
0.0
 12
26.02431002
 22
49.03970627999999
 32
0.0
 13
26.02431002
 23
49.03970627999999
 33
0.0
  0
POINT
  5
202
330
18
100
AcDbEntity
  8
0
  6
ByBlock
 62
     7
100
AcDbPoint
 10
24.06719537
 20
51.05643843
 30
0.0
  0
ARC
  5
203
330
18
100
AcDbEntity
  8
0
 62
     7
100
AcDbCircle
 10
23.94777766
 20
51.05643843
 30
0.0
 40
0.1194177
100
AcDbArc
 50
290.0
 51
0.0
  0
ARC
  5
204
330
18
100
AcDbEntity
  8
0
 62
     7
100
AcDbCircle
 10
23.94777766
 20
51.32201151
 30
0.0
 40
0.1194177
100
AcDbArc
 50
0.0
 51
70.0
  0
LINE
  5
205
330
18
100
AcDbEntity
  8
0
 62
     7
100
AcDbLine
 10
24.06719537
 20
51.32201151
 30
0.0
 11
24.06719537
 21
51.05643843
 31
0.0
  0
LINE
  5
206
330
18
100
AcDbEntity
  8
0
 62
     7
100
AcDbLine
 10
23.98862093
 20
69.54376885000001
 30
0.0
 11
23.83035626
 21
69.48616523
 31
0.0
  0
LINE
  5
207
330
18
100
AcDbEntity
  8
0
 62
     7
100
AcDbLine
 10
23.98862093
 20
70.03377380999999
 30
0.0
 11
23.83035626
 21
70.09137743
 31
0.0
  0
LINE
  5
208
330
18
100
AcDbEntity
  8
0
 62
     7
100
AcDbLine
 10
16.30743291
 20
64.95411908
 30
0.0
 11
16.30743291
 21
57.39670315
 31
0.0
  0
LINE
  5
209
330
18
100
AcDbEntity
  8
0
 62
     7
100
AcDbLine
 10
15.75046873
 20
62.81220734
 30
0.0
 11
15.75046873
 21
64.04143603
 31
0.0
  0
LINE
  5
20A
330
18
100
AcDbEntity
  8
0
 62
     7
100
AcDbLine
 10
13.66018123
 20
64.04143603
 30
0.0
 11
13.66018123
 21
62.81220734
 31
0.0
  0
LINE
  5
20B
330
18
100
AcDbEntity
  8
0
 62
     7
100
AcDbLine
 10
19.58938195
 20
67.80928387
 30
0.0
 11
19.58938195
 21
61.41424653
 31
0.0
  0
LINE
  5
20C
330
18
100
AcDbEntity
  8
0
 62
     7
100
AcDbLine
 10
18.42756884
 20
67.80928387
 30
0.0
 11
18.42756884
 21
61.41424653
 31
0.0
  0
LINE
  5
20D
330
18
100
AcDbEntity
  8
0
 62
     7
100
AcDbLine
 10
18.42756884
 20
60.93657571
 30
0.0
 11
19.58938195
 21
60.93657571
 31
0.0
  0
LINE
  5
20E
330
18
100
AcDbEntity
  8
0
 62
     7
100
AcDbLine
 10
18.42756884
 20
61.41424653
 30
0.0
 11
19.58938195
 21
61.41424653
 31
0.0
  0
LINE
  5
20F
330
18
100
AcDbEntity
  8
0
 62
     7
100
AcDbLine
 10
15.42183121
 20
62.57880798
 30
0.0
 11
15.42183121
 21
59.77201425
 31
0.0
  0
LINE
  5
210
330
18
100
AcDbEntity
  8
0
 62
     7
100
AcDbLine
 10
13.98881875
 20
62.57880798
 30
0.0
 11
13.98881875
 21
59.77201425
 31
0.0
  0
ARC
  5
211
330
18
100
AcDbEntity
  8
0
 62
     7
100
AcDbCircle
 10
15.75046873
 20
59.98123407
 30
0.0
 40
0.29806659
100
AcDbArc
 50
270.0
 51
90.0
  0
ARC
  5
212
330
18
100
AcDbEntity
  8
0
 62
     7
100
AcDbCircle
 10
13.66018123
 20
59.98123407
 30
0.0
 40
0.29806659
100
AcDbArc
 50
90.0
 51
270.0
  0
CIRCLE
  5
213
330
18
100
AcDbEntity
  8
0
 62
     7
100
AcDbCircle
 10
15.75046873
 20
59.98123407
 30
0.0
 40
0.16431876
  0
CIRCLE
  5
214
330
18
100
AcDbEntity
  8
0
 62
     7
100
AcDbCircle
 10
13.66018123
 20
59.98123407
 30
0.0
 40
0.16431876
  0
LINE
  5
215
330
18
100
AcDbEntity
  8
0
 62
     7
100
AcDbLine
 10
15.75046873
 20
58.4584195
 30
0.0
 11
16.30743291
 21
58.4584195
 31
0.0
  0
LINE
  5
216
330
18
100
AcDbEntity
  8
0
 62
     7
100
AcDbLine
 10
15.36260003
 20
59.71278307
 30
0.0
 11
14.04804993
 21
59.71278307
 31
0.0
  0
LINE
  5
217
330
18
100
AcDbEntity
  8
0
 62
     7
100
AcDbLine
 10
13.77959893
 20
58.18996849
 30
0.0
 11
15.63105103
 21
58.18996849
 31
0.0
  0
ARC
  5
218
330
18
100
AcDbEntity
  8
0
 62
     7
100
AcDbCircle
 10
14.04804993
 20
59.77201425
 30
0.0
 40
0.05923118
100
AcDbArc
 50
180.0
 51
270.0
  0
ARC
  5
219
330
18
100
AcDbEntity
  8
0
 62
     7
100
AcDbCircle
 10
13.795132
 20
59.56374977
 30
0.0
 40
0.1194177
100
AcDbArc
 50
0.0
 51
90.0
  0
LINE
  5
21A
330
18
100
AcDbEntity
  8
0
 62
     7
100
AcDbLine
 10
13.66018123
 20
59.68316748
 30
0.0
 11
13.795132
 21
59.68316748
 31
0.0
  0
LINE
  5
21B
330
18
100
AcDbEntity
  8
0
 62
     7
100
AcDbLine
 10
13.66018123
 20
59.53861489
 30
0.0
 11
13.66018123
 21
58.30938620000001
 31
0.0
  0
POINT
  5
21C
330
18
100
AcDbEntity
  8
0
  6
ByBlock
 62
     7
100
AcDbPoint
 10
13.77959893
 20
58.18996849
 30
0.0
  0
ARC
  5
21D
330
18
100
AcDbEntity
  8
0
 62
     7
100
AcDbCircle
 10
13.77959893
 20
58.30938620000001
 30
0.0
 40
0.1194177
100
AcDbArc
 50
180.0
 51
270.0
  0
ARC
  5
21E
330
18
100
AcDbEntity
  8
0
 62
     7
100
AcDbCircle
 10
13.480577
 20
59.53861489
 30
0.0
 40
0.17960423
100
AcDbArc
 50
0.0
 51
67.91386756999999
  0
ARC
  5
21F
330
18
100
AcDbEntity
  8
0
 62
     7
100
AcDbCircle
 10
15.36260003
 20
59.77201425
 30
0.0
 40
0.05923118
100
AcDbArc
 50
270.0
 51
0.0
  0
LINE
  5
220
330
18
100
AcDbEntity
  8
0
 62
     7
100
AcDbLine
 10
15.75046873
 20
59.68316748
 30
0.0
 11
15.62128931
 21
59.68316748
 31
0.0
  0
ARC
  5
221
330
18
100
AcDbEntity
  8
0
 62
     7
100
AcDbCircle
 10
15.62128931
 20
59.56374977
 30
0.0
 40
0.1194177
100
AcDbArc
 50
90.0
 51
180.0
  0
POINT
  5
222
330
18
100
AcDbEntity
  8
0
  6
ByBlock
 62
     7
100
AcDbPoint
 10
15.63105103
 20
58.18996849
 30
0.0
  0
POINT
  5
223
330
18
100
AcDbEntity
  8
0
  6
ByBlock
 62
     7
100
AcDbPoint
 10
14.70532498
 20
58.18996849
 30
0.0
  0
ARC
  5
224
330
18
100
AcDbEntity
  8
0
 62
     7
100
AcDbCircle
 10
15.63105103
 20
58.30938620000001
 30
0.0
 40
0.1194177
100
AcDbArc
 50
270.0
 51
0.0
  0
ARC
  5
225
330
18
100
AcDbEntity
  8
0
 62
     7
100
AcDbCircle
 10
15.93007296
 20
59.53861489
 30
0.0
 40
0.17960423
100
AcDbArc
 50
112.08613243
 51
180.0
  0
LINE
  5
226
330
18
100
AcDbEntity
  8
0
 62
     7
100
AcDbLine
 10
15.75046873
 20
58.30938620000001
 30
0.0
 11
15.75046873
 21
59.53861489
 31
0.0
  0
ARC
  5
227
330
18
100
AcDbEntity
  8
0
 62
     7
100
AcDbCircle
 10
17.38219225
 20
57.39670315
 30
0.0
 40
1.074759339999999
100
AcDbArc
 50
180.0
 51
210.0
  0
LINE
  5
228
330
18
100
AcDbEntity
  8
0
 62
     7
100
AcDbLine
 10
16.68095936
 20
56.46175547
 30
0.0
 11
16.45142336
 21
56.85932348
 31
0.0
  0
ARC
  5
229
330
18
100
AcDbEntity
  8
0
 62
     7
100
AcDbCircle
 10
17.09463442
 20
56.70059088
 30
0.0
 40
0.47767082
100
AcDbArc
 50
210.0
 51
270.0
  0
ARC
  5
22A
330
18
100
AcDbEntity
  8
0
 62
     7
100
AcDbCircle
 10
15.75046873
 20
62.36958816
 30
0.0
 40
0.29806659
100
AcDbArc
 50
270.0
 51
90.0
  0
CIRCLE
  5
22B
330
18
100
AcDbEntity
  8
0
 62
     7
100
AcDbCircle
 10
15.75046873
 20
62.36958816
 30
0.0
 40
0.16431876
  0
LINE
  5
22C
330
18
100
AcDbEntity
  8
0
 62
     7
100
AcDbLine
 10
15.75046873
 20
60.42385324
 30
0.0
 11
15.75046873
 21
61.92696899
 31
0.0
  0
LINE
  5
22D
330
18
100
AcDbEntity
  8
0
 62
     7
100
AcDbLine
 10
13.66018123
 20
61.92696899
 30
0.0
 11
13.66018123
 21
60.42385324
 31
0.0
  0
LINE
  5
22E
330
18
100
AcDbEntity
  8
0
 62
     7
100
AcDbLine
 10
13.66018123
 20
60.27930065999999
 30
0.0
 11
13.795132
 21
60.27930065999999
 31
0.0
  0
ARC
  5
22F
330
18
100
AcDbEntity
  8
0
 62
     7
100
AcDbCircle
 10
13.795132
 20
60.39871835999999
 30
0.0
 40
0.1194177
100
AcDbArc
 50
270.0
 51
340.96487978
  0
ARC
  5
230
330
18
100
AcDbEntity
  8
0
 62
     7
100
AcDbCircle
 10
13.480577
 20
60.42385324
 30
0.0
 40
0.17960423
100
AcDbArc
 50
292.08613243
 51
0.0
  0
ARC
  5
231
330
18
100
AcDbEntity
  8
0
 62
     7
100
AcDbCircle
 10
15.93007296
 20
60.42385324
 30
0.0
 40
0.17960423
100
AcDbArc
 50
180.0
 51
247.91386757
  0
ARC
  5
232
330
18
100
AcDbEntity
  8
0
 62
     7
100
AcDbCircle
 10
15.62128931
 20
60.39871835999999
 30
0.0
 40
0.1194177
100
AcDbArc
 50
199.03512022
 51
270.0
  0
LINE
  5
233
330
18
100
AcDbEntity
  8
0
 62
     7
100
AcDbLine
 10
15.75046873
 20
60.27930065999999
 30
0.0
 11
15.62128931
 21
60.27930065999999
 31
0.0
  0
LINE
  5
234
330
18
100
AcDbEntity
  8
0
 62
     7
100
AcDbLine
 10
15.36260003
 20
62.63803916
 30
0.0
 11
14.04804993
 21
62.63803916
 31
0.0
  0
ARC
  5
237
330
18
100
AcDbEntity
  8
0
 62
     7
100
AcDbCircle
 10
14.04804993
 20
62.57880798
 30
0.0
 40
0.05923118
100
AcDbArc
 50
90.0
 51
180.0
  0
ARC
  5
238
330
18
100
AcDbEntity
  8
0
 62
     7
100
AcDbCircle
 10
13.795132
 20
62.78707245999999
 30
0.0
 40
0.1194177
100
AcDbArc
 50
270.0
 51
0.0
  0
ARC
  5
239
330
18
100
AcDbEntity
  8
0
 62
     7
100
AcDbCircle
 10
13.795132
 20
61.95210387
 30
0.0
 40
0.1194177
100
AcDbArc
 50
19.03512022
 51
90.0
  0
ARC
  5
23A
330
18
100
AcDbEntity
  8
0
 62
     7
100
AcDbCircle
 10
13.480577
 20
61.92696899
 30
0.0
 40
0.17960423
100
AcDbArc
 50
0.0
 51
67.91386756999999
  0
LINE
  5
23B
330
18
100
AcDbEntity
  8
0
 62
     7
100
AcDbLine
 10
13.66018123
 20
62.07152157
 30
0.0
 11
13.795132
 21
62.07152157
 31
0.0
  0
LINE
  5
23C
330
18
100
AcDbEntity
  8
0
 62
     7
100
AcDbLine
 10
13.66018123
 20
62.66765475999999
 30
0.0
 11
13.795132
 21
62.66765475999999
 31
0.0
  0
ARC
  5
23D
330
18
100
AcDbEntity
  8
0
 62
     7
100
AcDbCircle
 10
13.66018123
 20
62.36958816
 30
0.0
 40
0.29806659
100
AcDbArc
 50
90.0
 51
270.0
  0
ARC
  5
23E
330
18
100
AcDbEntity
  8
0
 62
     7
100
AcDbCircle
 10
13.480577
 20
62.81220734
 30
0.0
 40
0.17960423
100
AcDbArc
 50
292.08613243
 51
0.0
  0
CIRCLE
  5
23F
330
18
100
AcDbEntity
  8
0
 62
     7
100
AcDbCircle
 10
13.66018123
 20
62.36958816
 30
0.0
 40
0.16431876
  0
ARC
  5
242
330
18
100
AcDbEntity
  8
0
 62
     7
100
AcDbCircle
 10
15.36260003
 20
62.57880798
 30
0.0
 40
0.05923118
100
AcDbArc
 50
0.0
 51
90.0
  0
ARC
  5
243
330
18
100
AcDbEntity
  8
0
 62
     7
100
AcDbCircle
 10
15.93007296
 20
61.92696899
 30
0.0
 40
0.17960423
100
AcDbArc
 50
112.08613243
 51
180.0
  0
LINE
  5
244
330
18
100
AcDbEntity
  8
0
 62
     7
100
AcDbLine
 10
15.75046873
 20
62.66765475999999
 30
0.0
 11
15.62128931
 21
62.66765475999999
 31
0.0
  0
ARC
  5
245
330
18
100
AcDbEntity
  8
0
 62
     7
100
AcDbCircle
 10
15.62128931
 20
62.78707245999999
 30
0.0
 40
0.1194177
100
AcDbArc
 50
180.0
 51
270.0
  0
LINE
  5
246
330
18
100
AcDbEntity
  8
0
 62
     7
100
AcDbLine
 10
15.75046873
 20
62.07152157
 30
0.0
 11
15.62128931
 21
62.07152157
 31
0.0
  0
ARC
  5
247
330
18
100
AcDbEntity
  8
0
 62
     7
100
AcDbCircle
 10
15.62128931
 20
61.95210387
 30
0.0
 40
0.1194177
100
AcDbArc
 50
90.0
 51
160.96487978
  0
ARC
  5
248
330
18
100
AcDbEntity
  8
0
 62
     7
100
AcDbCircle
 10
15.93007296
 20
62.81220734
 30
0.0
 40
0.17960423
100
AcDbArc
 50
180.0
 51
247.91386757
  0
LINE
  5
24B
330
18
100
AcDbEntity
  8
0
 62
     7
100
AcDbLine
 10
18.64974461
 20
59.98123407
 30
0.0
 11
18.64974461
 21
59.74239866
 31
0.0
  0
LINE
  5
24C
330
18
100
AcDbEntity
  8
0
 62
     7
100
AcDbLine
 10
19.36720618
 20
59.98123407
 30
0.0
 11
19.36720618
 21
59.74239866
 31
0.0
  0
LINE
  5
24D
330
18
100
AcDbEntity
  8
0
 62
     7
100
AcDbLine
 10
18.64974461
 20
59.74239866
 30
0.0
 11
19.36720618
 21
59.74239866
 31
0.0
  0
LINE
  5
24E
330
18
100
AcDbEntity
  8
0
 62
     7
100
AcDbLine
 10
18.59051343
 20
61.47347770999999
 30
0.0
 11
18.59051343
 21
62.31035698
 31
0.0
  0
LINE
  5
24F
330
18
100
AcDbEntity
  8
0
 62
     7
100
AcDbLine
 10
19.42643736
 20
62.31035698
 30
0.0
 11
19.42643736
 21
61.47347770999999
 31
0.0
  0
LINE
  5
250
330
18
100
AcDbEntity
  8
0
 62
     7
100
AcDbLine
 10
19.21769521
 20
61.41424653
 30
0.0
 11
19.21769521
 21
60.93657571
 31
0.0
  0
LINE
  5
251
330
18
100
AcDbEntity
  8
0
 62
     7
100
AcDbLine
 10
18.79925558
 20
61.41424653
 30
0.0
 11
18.79925558
 21
60.93657571
 31
0.0
  0
LINE
  5
252
330
18
100
AcDbEntity
  8
0
 62
     7
100
AcDbLine
 10
18.64974461
 20
59.98123407
 30
0.0
 11
19.36720618
 21
59.98123407
 31
0.0
  0
LINE
  5
253
330
18
100
AcDbEntity
  8
0
 62
     7
100
AcDbLine
 10
19.42643736
 20
60.04046524999999
 30
0.0
 11
19.42643736
 21
60.87734452
 31
0.0
  0
LINE
  5
254
330
18
100
AcDbEntity
  8
0
 62
     7
100
AcDbLine
 10
18.59051343
 20
60.87734452
 30
0.0
 11
18.59051343
 21
60.04046524999999
 31
0.0
  0
LINE
  5
255
330
18
100
AcDbEntity
  8
0
 62
     7
100
AcDbLine
 10
19.36720618
 20
60.93657571
 30
0.0
 11
19.42643736
 21
60.87734452
 31
0.0
  0
LINE
  5
256
330
18
100
AcDbEntity
  8
0
 62
     7
100
AcDbLine
 10
19.42643736
 20
60.04046524999999
 30
0.0
 11
19.36720618
 21
59.98123407
 31
0.0
  0
LINE
  5
257
330
18
100
AcDbEntity
  8
0
 62
     7
100
AcDbLine
 10
18.64974461
 20
59.98123407
 30
0.0
 11
18.59051343
 21
60.04046524999999
 31
0.0
  0
LINE
  5
258
330
18
100
AcDbEntity
  8
0
 62
     7
100
AcDbLine
 10
18.59051343
 20
60.87734452
 30
0.0
 11
18.64974461
 21
60.93657571
 31
0.0
  0
LINE
  5
259
330
18
100
AcDbEntity
  8
0
 62
     7
100
AcDbLine
 10
18.59051343
 20
61.47347770999999
 30
0.0
 11
18.64974461
 21
61.41424653
 31
0.0
  0
LINE
  5
25A
330
18
100
AcDbEntity
  8
0
 62
     7
100
AcDbLine
 10
19.36720618
 20
61.41424653
 30
0.0
 11
19.42643736
 21
61.47347770999999
 31
0.0
  0
LINE
  5
25B
330
18
100
AcDbEntity
  8
0
 62
     7
100
AcDbLine
 10
18.79925558
 20
62.96667669
 30
0.0
 11
19.21769521
 21
62.96667669
 31
0.0
  0
LINE
  5
25C
330
18
100
AcDbEntity
  8
0
 62
     7
100
AcDbLine
 10
18.64974461
 20
62.60842357
 30
0.0
 11
18.64974461
 21
62.36958816
 31
0.0
  0
LINE
  5
25D
330
18
100
AcDbEntity
  8
0
 62
     7
100
AcDbLine
 10
19.36720618
 20
62.60842357
 30
0.0
 11
19.36720618
 21
62.36958816
 31
0.0
  0
LINE
  5
25E
330
18
100
AcDbEntity
  8
0
 62
     7
100
AcDbLine
 10
18.64974461
 20
62.60842357
 30
0.0
 11
19.36720618
 21
62.60842357
 31
0.0
  0
LINE
  5
25F
330
18
100
AcDbEntity
  8
0
 62
     7
100
AcDbLine
 10
18.79925558
 20
62.96667669
 30
0.0
 11
18.79925558
 21
62.60842357
 31
0.0
  0
LINE
  5
260
330
18
100
AcDbEntity
  8
0
 62
     7
100
AcDbLine
 10
19.21769521
 20
62.96667669
 30
0.0
 11
19.21769521
 21
62.60842357
 31
0.0
  0
LINE
  5
261
330
18
100
AcDbEntity
  8
0
 62
     7
100
AcDbLine
 10
18.64974461
 20
62.36958816
 30
0.0
 11
18.59051343
 21
62.31035698
 31
0.0
  0
LINE
  5
262
330
18
100
AcDbEntity
  8
0
 62
     7
100
AcDbLine
 10
19.42643736
 20
62.31035698
 30
0.0
 11
19.36720618
 21
62.36958816
 31
0.0
  0
LINE
  5
263
330
18
100
AcDbEntity
  8
0
 62
     7
100
AcDbLine
 10
18.64974461
 20
62.36958816
 30
0.0
 11
19.36720618
 21
62.36958816
 31
0.0
  0
LINE
  5
264
330
18
100
AcDbEntity
  8
0
 62
     7
100
AcDbLine
 10
18.59480033
 20
68.09893730999999
 30
0.0
 11
18.42756884
 21
67.80928387
 31
0.0
  0
ARC
  5
265
330
18
100
AcDbEntity
  8
0
 62
     7
100
AcDbCircle
 10
18.68862194
 20
69.92155787
 30
0.0
 40
0.1194177
100
AcDbArc
 50
110.0
 51
180.0
  0
ARC
  5
266
330
18
100
AcDbEntity
  8
0
 62
     7
100
AcDbCircle
 10
18.68862194
 20
69.65598479
 30
0.0
 40
0.1194177
100
AcDbArc
 50
180.0
 51
250.0
  0
LINE
  5
267
330
18
100
AcDbEntity
  8
0
 62
     7
100
AcDbLine
 10
15.75046873
 20
63.89240274
 30
0.0
 11
16.30743291
 21
63.89240274
 31
0.0
  0
LINE
  5
268
330
18
100
AcDbEntity
  8
0
 62
     7
100
AcDbLine
 10
15.63105103
 20
64.16085373999999
 30
0.0
 11
13.77959893
 21
64.16085373999999
 31
0.0
  0
ARC
  5
269
330
18
100
AcDbEntity
  8
0
 62
     7
100
AcDbCircle
 10
13.77959893
 20
64.04143603
 30
0.0
 40
0.1194177
100
AcDbArc
 50
90.0
 51
180.0
  0
ARC
  5
26A
330
18
100
AcDbEntity
  8
0
 62
     7
100
AcDbCircle
 10
15.63105103
 20
64.04143603
 30
0.0
 40
0.1194177
100
AcDbArc
 50
0.0
 51
90.0
  0
LINE
  5
26B
330
18
100
AcDbEntity
  8
0
 62
     7
100
AcDbLine
 10
16.68095936
 20
65.88906676
 30
0.0
 11
16.45142336
 21
65.49149875000001
 31
0.0
  0
ARC
  5
26C
330
18
100
AcDbEntity
  8
0
 62
     7
100
AcDbCircle
 10
17.38219225
 20
64.95411908
 30
0.0
 40
1.074759339999999
100
AcDbArc
 50
150.0
 51
180.0
  0
ARC
  5
26D
330
18
100
AcDbEntity
  8
0
 62
     7
100
AcDbCircle
 10
17.09463442
 20
67.72905476
 30
0.0
 40
1.60115259
100
AcDbArc
 50
270.0
 51
319.55724176
  0
ARC
  5
26E
330
18
100
AcDbEntity
  8
0
 62
     7
100
AcDbCircle
 10
17.09463442
 20
65.65023135
 30
0.0
 40
0.47767082
100
AcDbArc
 50
90.0
 51
150.0
  0
ARC
  5
26F
330
18
100
AcDbEntity
  8
0
 62
     7
100
AcDbCircle
 10
17.94966519
 20
67.00026558000001
 30
0.0
 40
0.47767082
100
AcDbArc
 50
319.55724176
 51
0.0
  0
ARC
  5
270
330
18
100
AcDbEntity
  8
0
 62
     7
100
AcDbCircle
 10
20.00460505
 20
67.47493387999999
 30
0.0
 40
0.36860744
100
AcDbArc
 50
241.40780718
 51
30.0
  0
LINE
  5
271
330
18
100
AcDbEntity
  8
0
 62
     7
100
AcDbLine
 10
20.8966125
 20
69.95117941
 30
0.0
 11
21.73978711
 21
69.95117941
 31
0.0
  0
LINE
  5
272
330
18
100
AcDbEntity
  8
0
 62
     7
100
AcDbLine
 10
20.8966125
 20
69.62636325
 30
0.0
 11
21.73978711
 21
69.62636325
 31
0.0
  0
LINE
  5
273
330
18
100
AcDbEntity
  8
0
 62
     7
100
AcDbLine
 10
20.80585504
 20
69.5176915
 30
0.0
 11
20.80585504
 21
70.05985115999999
 31
0.0
  0
LINE
  5
274
330
18
100
AcDbEntity
  8
0
 62
     7
100
AcDbLine
 10
20.8966125
 20
69.5176915
 30
0.0
 11
20.8966125
 21
70.05985115999999
 31
0.0
  0
LINE
  5
275
330
18
100
AcDbEntity
  8
0
 62
     7
100
AcDbLine
 10
20.56701963
 20
69.5176915
 30
0.0
 11
20.56701963
 21
70.05985115999999
 31
0.0
  0
LINE
  5
276
330
18
100
AcDbEntity
  8
0
 62
     7
100
AcDbLine
 10
20.32382846
 20
67.65923759999999
 30
0.0
 11
19.57696249
 21
68.95284740000001
 31
0.0
  0
LINE
  5
277
330
18
100
AcDbEntity
  8
0
 62
     7
100
AcDbLine
 10
18.80604335
 20
69.33713192999999
 30
0.0
 11
21.16410816
 21
69.33713192999999
 31
0.0
  0
ARC
  5
278
330
18
100
AcDbEntity
  8
0
 62
     7
100
AcDbCircle
 10
19.37012496
 20
68.83342969
 30
0.0
 40
0.23883541
100
AcDbArc
 50
30.0
 51
90.0
  0
ARC
  5
279
330
18
100
AcDbEntity
  8
0
 62
     7
100
AcDbCircle
 10
19.22886764
 20
69.31110051
 30
0.0
 40
0.23883541
100
AcDbArc
 50
180.0
 51
270.0
  0
LINE
  5
27A
330
18
100
AcDbEntity
  8
0
 62
     7
100
AcDbLine
 10
19.22886764
 20
69.0722651
 30
0.0
 11
19.37012496
 21
69.0722651
 31
0.0
  0
LINE
  5
27B
330
18
100
AcDbEntity
  8
0
 62
     7
100
AcDbLine
 10
18.99003223
 20
69.33713192999999
 30
0.0
 11
18.99003223
 21
69.31110051
 31
0.0
  0
LINE
  5
27C
330
18
100
AcDbEntity
  8
0
 62
     7
100
AcDbLine
 10
19.58938195
 20
67.80928387
 30
0.0
 11
19.42215046
 21
68.09893730999999
 31
0.0
  0
ARC
  5
27D
330
18
100
AcDbEntity
  8
0
 62
     7
100
AcDbCircle
 10
19.0084754
 20
67.8601019
 30
0.0
 40
0.47767082
100
AcDbArc
 50
30.0
 51
150.0
  0
LINE
  5
27E
330
18
100
AcDbEntity
  8
0
 62
     7
100
AcDbLine
 10
18.80604335
 20
69.48616523
 30
0.0
 11
18.80604335
 21
69.33713192999999
 31
0.0
  0
LINE
  5
27F
330
18
100
AcDbEntity
  8
0
 62
     7
100
AcDbLine
 10
18.64777868
 20
69.54376885000001
 30
0.0
 11
18.80604335
 21
69.48616523
 31
0.0
  0
ARC
  5
280
330
18
100
AcDbEntity
  8
0
 62
     7
100
AcDbCircle
 10
20.98641461
 20
69.5176915
 30
0.0
 40
0.18055957
100
AcDbArc
 50
180.0
 51
270.0
  0
ARC
  5
281
330
18
100
AcDbEntity
  8
0
 62
     7
100
AcDbCircle
 10
20.98641461
 20
69.5176915
 30
0.0
 40
0.08980211
100
AcDbArc
 50
180.0
 51
270.0
  0
LINE
  5
282
330
18
100
AcDbEntity
  8
0
 62
     7
100
AcDbLine
 10
20.98641461
 20
69.42788939
 30
0.0
 11
21.16410816
 21
69.42788939
 31
0.0
  0
LINE
  5
283
330
18
100
AcDbEntity
  8
0
 62
     7
100
AcDbLine
 10
21.16410816
 20
69.33713192999999
 30
0.0
 11
21.16410816
 21
69.42788939
 31
0.0
  0
LINE
  5
284
330
18
100
AcDbEntity
  8
0
 62
     7
100
AcDbLine
 10
20.56701963
 20
69.52032033
 30
0.0
 11
20.80585504
 21
69.52032033
 31
0.0
  0
LINE
  5
285
330
18
100
AcDbEntity
  8
0
 62
     7
100
AcDbLine
 10
18.80604335
 20
70.24041072999999
 30
0.0
 11
21.16410816
 21
70.24041072999999
 31
0.0
  0
LINE
  5
286
330
18
100
AcDbEntity
  8
0
 62
     7
100
AcDbLine
 10
18.80604335
 20
70.09137743
 30
0.0
 11
18.80604335
 21
70.24041072999999
 31
0.0
  0
LINE
  5
287
330
18
100
AcDbEntity
  8
0
 62
     7
100
AcDbLine
 10
18.64777868
 20
70.03377380999999
 30
0.0
 11
18.80604335
 21
70.09137743
 31
0.0
  0
LINE
  5
288
330
18
100
AcDbEntity
  8
0
 62
     7
100
AcDbLine
 10
18.56920424
 20
69.65598479
 30
0.0
 11
18.56920424
 21
69.92155787
 31
0.0
  0
LINE
  5
289
330
18
100
AcDbEntity
  8
0
 62
     7
100
AcDbLine
 10
21.16410816
 20
70.14965327
 30
0.0
 11
21.16410816
 21
70.24041072999999
 31
0.0
  0
ARC
  5
28A
330
18
100
AcDbEntity
  8
0
 62
     7
100
AcDbCircle
 10
20.98641461
 20
70.05985115999999
 30
0.0
 40
0.18055957
100
AcDbArc
 50
90.0
 51
180.0
  0
ARC
  5
28B
330
18
100
AcDbEntity
  8
0
 62
     7
100
AcDbCircle
 10
20.98641461
 20
70.05985115999999
 30
0.0
 40
0.08980211
100
AcDbArc
 50
90.0
 51
180.0
  0
LINE
  5
28C
330
18
100
AcDbEntity
  8
0
 62
     7
100
AcDbLine
 10
20.98641461
 20
70.14965327
 30
0.0
 11
21.16410816
 21
70.14965327
 31
0.0
  0
LINE
  5
28D
330
18
100
AcDbEntity
  8
0
 62
     7
100
AcDbLine
 10
20.20876652
 20
69.62636325
 30
0.0
 11
20.56701963
 21
69.62636325
 31
0.0
  0
LINE
  5
28E
330
18
100
AcDbEntity
  8
0
 62
     7
100
AcDbLine
 10
20.20876652
 20
69.95117941
 30
0.0
 11
20.56701963
 21
69.95117941
 31
0.0
  0
LINE
  5
28F
330
18
100
AcDbEntity
  8
0
 62
     7
100
AcDbLine
 10
20.56701963
 20
70.05722233
 30
0.0
 11
20.80585504
 21
70.05722233
 31
0.0
  0
LINE
  5
290
330
18
100
AcDbEntity
  8
0
 62
     7
100
AcDbLine
 10
20.20876652
 20
69.62636325
 30
0.0
 11
20.20876652
 21
69.95117941
 31
0.0
  0
LINE
  5
291
330
18
100
AcDbEntity
  8
0
 62
     7
100
AcDbLine
 10
21.73978711
 20
69.5176915
 30
0.0
 11
21.73978711
 21
70.05985115999999
 31
0.0
  0
LINE
  5
292
330
18
100
AcDbEntity
  8
0
 62
     7
100
AcDbLine
 10
21.83054457
 20
69.5176915
 30
0.0
 11
21.83054457
 21
70.05985115999999
 31
0.0
  0
ARC
  5
293
330
18
100
AcDbEntity
  8
0
 62
     7
100
AcDbCircle
 10
21.63247734
 20
69.78877133000001
 30
0.0
 40
0.33673071
100
AcDbArc
 50
306.02894932
 51
53.97105068000001
  0
LINE
  5
294
330
18
100
AcDbEntity
  8
0
 62
     7
100
AcDbLine
 10
23.83035626
 20
69.33713192999999
 30
0.0
 11
21.47229145
 21
69.33713192999999
 31
0.0
  0
LINE
  5
295
330
18
100
AcDbEntity
  8
0
 62
     7
100
AcDbLine
 10
21.47229145
 20
69.33713192999999
 30
0.0
 11
21.47229145
 21
69.42788939
 31
0.0
  0
LINE
  5
296
330
18
100
AcDbEntity
  8
0
 62
     7
100
AcDbLine
 10
21.649985
 20
69.42788939
 30
0.0
 11
21.47229145
 21
69.42788939
 31
0.0
  0
ARC
  5
297
330
18
100
AcDbEntity
  8
0
 62
     7
100
AcDbCircle
 10
21.649985
 20
69.5176915
 30
0.0
 40
0.08980211
100
AcDbArc
 50
270.0
 51
0.0
  0
ARC
  5
298
330
18
100
AcDbEntity
  8
0
 62
     7
100
AcDbCircle
 10
21.649985
 20
69.5176915
 30
0.0
 40
0.18055957
100
AcDbArc
 50
270.0
 51
0.0
  0
LINE
  5
299
330
18
100
AcDbEntity
  8
0
 62
     7
100
AcDbLine
 10
23.83035626
 20
69.48616523
 30
0.0
 11
23.83035626
 21
69.33713192999999
 31
0.0
  0
LINE
  5
29A
330
18
100
AcDbEntity
  8
0
 62
     7
100
AcDbLine
 10
23.83035626
 20
70.24041072999999
 30
0.0
 11
21.47229145
 21
70.24041072999999
 31
0.0
  0
LINE
  5
29B
330
18
100
AcDbEntity
  8
0
 62
     7
100
AcDbLine
 10
21.649985
 20
70.14965327
 30
0.0
 11
21.47229145
 21
70.14965327
 31
0.0
  0
ARC
  5
29C
330
18
100
AcDbEntity
  8
0
 62
     7
100
AcDbCircle
 10
21.649985
 20
70.05985115999999
 30
0.0
 40
0.08980211
100
AcDbArc
 50
0.0
 51
90.0
  0
ARC
  5
29D
330
18
100
AcDbEntity
  8
0
 62
     7
100
AcDbCircle
 10
21.649985
 20
70.05985115999999
 30
0.0
 40
0.18055957
100
AcDbArc
 50
0.0
 51
90.0
  0
LINE
  5
29E
330
18
100
AcDbEntity
  8
0
 62
     7
100
AcDbLine
 10
21.47229145
 20
70.14965327
 30
0.0
 11
21.47229145
 21
70.24041072999999
 31
0.0
  0
LINE
  5
29F
330
18
100
AcDbEntity
  8
0
 62
     7
100
AcDbLine
 10
23.83035626
 20
70.09137743
 30
0.0
 11
23.83035626
 21
70.24041072999999
 31
0.0
  0
TEXT
  5
2A0
330
18
100
AcDbEntity
  8
0
  6
ByBlock
 62
     7
100
AcDbText
 10
31.6107775383403
 20
60.71151573999999
 30
0.0
 40
0.6879999999999999
  1
D
  7
ROMANS
 72
     1
 11
31.97115849072126
 21
61.05551573999999
 31
0.0
100
AcDbText
 73
     2
  0
TEXT
  5
2A1
330
18
100
AcDbEntity
  8
0
  6
ByBlock
 62
     7
100
AcDbText
 10
34.68461088072126
 20
61.6967118
 30
0.0
 40
0.6879999999999999
  1
E
  7
ROMANS
 72
     1
 11
35.02861088072126
 21
62.0407118
 31
0.0
100
AcDbText
 73
     2
  0
ARC
  5
2A2
330
18
100
AcDbEntity
  8
0
 62
     7
100
AcDbCircle
 10
23.94777766
 20
69.65598479
 30
0.0
 40
0.1194177
100
AcDbArc
 50
290.0
 51
0.0
  0
LINE
  5
2A3
330
18
100
AcDbEntity
  8
0
 62
     7
100
AcDbLine
 10
24.06719537
 20
69.65598479
 30
0.0
 11
24.06719537
 21
69.92155787
 31
0.0
  0
ARC
  5
2A4
330
18
100
AcDbEntity
  8
0
 62
     7
100
AcDbCircle
 10
23.94777766
 20
69.92155787
 30
0.0
 40
0.1194177
100
AcDbArc
 50
0.0
 51
70.0
  0
LINE
  5
2A5
330
18
100
AcDbEntity
  8
0
  6
ByBlock
 62
     7
100
AcDbLine
 10
48.4638695
 20
59.80067451
 30
0.0
 11
48.4638695
 21
43.84294911
 31
0.0
  0
LINE
  5
2A6
330
18
100
AcDbEntity
  8
0
  6
ByBlock
 62
     7
100
AcDbLine
 10
28.99034358522894
 20
47.45766053000001
 30
0.0
 11
28.99034358522894
 21
54.37385633000001
 31
0.0
  0
LINE
  5
2A7
330
18
100
AcDbEntity
  8
0
  6
ByBlock
 62
     7
100
AcDbLine
 10
21.64888434441408
 20
46.76981455
 30
0.0
 11
29.32527663309166
 21
46.76981455
 31
0.0
  0
SOLID
  5
2A8
330
18
100
AcDbEntity
  8
0
  6
ByBlock
 62
     7
100
AcDbTrace
 10
28.87570259522894
 20
47.45766053000001
 30
0.0
 11
29.10498458522894
 21
47.45766053000001
 31
0.0
 12
28.99034358522894
 22
46.76981455
 32
0.0
 13
28.99034358522894
 23
46.76981455
 33
0.0
  0
SOLID
  5
2A9
330
18
100
AcDbEntity
  8
0
  6
ByBlock
 62
     7
100
AcDbTrace
 10
49.15171548
 20
44.64543608
 30
0.0
 11
49.15171548
 21
44.41615409
 31
0.0
 12
48.4638695
 22
44.53079509000001
 32
0.0
 13
48.4638695
 23
44.53079509000001
 33
0.0
  0
POINT
  5
2AA
330
18
100
AcDbEntity
  8
0
  6
ByBlock
 62
     7
100
AcDbPoint
 10
51.25977682
 20
46.76981454999999
 30
0.0
  0
ARC
  5
2AB
330
18
100
AcDbEntity
  8
0
 62
     7
100
AcDbCircle
 10
51.25977682
 20
47.18825419
 30
0.0
 40
0.05923118
100
AcDbArc
 50
90.0
 51
180.0
  0
ARC
  5
2AC
330
18
100
AcDbEntity
  8
0
 62
     7
100
AcDbCircle
 10
51.25977682
 20
46.82904574000001
 30
0.0
 40
0.05923118
100
AcDbArc
 50
180.0
 51
270.0
  0
LINE
  5
2AD
330
18
100
AcDbEntity
  8
0
 62
     7
100
AcDbLine
 10
51.20054564
 20
47.18825419
 30
0.0
 11
51.20054564
 21
46.82904574000001
 31
0.0
  0
TEXT
  5
2AE
330
18
100
AcDbEntity
  8
0
  6
ByBlock
 62
     7
100
AcDbText
 10
28.64634358522894
 20
54.71770231
 30
0.0
 40
0.6879999999999999
  1
C
  7
ROMANS
 72
     1
 11
28.99034358522894
 21
55.06170231000001
 31
0.0
100
AcDbText
 73
     2
  0
SOLID
  5
2B1
330
18
100
AcDbEntity
  8
0
  6
ByBlock
 62
     7
100
AcDbTrace
 10
28.87570259522894
 20
61.95019317999999
 30
0.0
 11
29.10498458522894
 21
61.95019317999999
 31
0.0
 12
28.99034358522894
 22
62.63803915999998
 32
0.0
 13
28.99034358522894
 23
62.63803915999998
 33
0.0
  0
LINE
  5
2B4
330
18
100
AcDbEntity
  8
0
  6
ByBlock
 62
     7
100
AcDbLine
 10
28.99034358522894
 20
62.63803915999998
 30
0.0
 11
28.99034358522894
 21
55.75050361999998
 31
0.0
  0
LINE
  5
2B5
330
18
100
AcDbEntity
  8
0
 62
     7
100
AcDbLine
 10
48.52310068
 20
62.36863283
 30
0.0
 11
49.24056225000001
 21
62.36863283
 31
0.0
  0
LINE
  5
2B6
330
18
100
AcDbEntity
  8
0
 62
     7
100
AcDbLine
 10
48.52310068
 20
59.98027873
 30
0.0
 11
49.24056225000001
 21
59.98027873
 31
0.0
  0
LINE
  5
2B7
330
18
100
AcDbEntity
  8
0
 62
     7
100
AcDbLine
 10
48.52310068
 20
59.74144332
 30
0.0
 11
49.24056225000001
 21
59.74144332
 31
0.0
  0
LINE
  5
2B8
330
18
100
AcDbEntity
  8
0
 62
     7
100
AcDbLine
 10
48.52310068
 20
62.60746824
 30
0.0
 11
49.24056225000001
 21
62.60746824
 31
0.0
  0
LINE
  5
2B9
330
18
100
AcDbEntity
  8
0
 62
     7
100
AcDbLine
 10
48.67261165
 20
62.96572136
 30
0.0
 11
49.09105128
 21
62.96572136
 31
0.0
  0
LINE
  5
2BA
330
18
100
AcDbEntity
  8
0
 62
     7
100
AcDbLine
 10
48.52310068
 20
61.41329119
 30
0.0
 11
49.24056225000001
 21
61.41329119
 31
0.0
  0
LINE
  5
2BB
330
18
100
AcDbEntity
  8
0
 62
     7
100
AcDbLine
 10
48.52310068
 20
60.93562037
 30
0.0
 11
49.24056225000001
 21
60.93562037
 31
0.0
  0
LINE
  5
2BC
330
18
100
AcDbEntity
  8
0
 62
     7
100
AcDbLine
 10
48.67261165
 20
61.41329119
 30
0.0
 11
48.67261165
 21
60.93562037
 31
0.0
  0
POINT
  5
2BD
330
18
100
AcDbEntity
  8
0
  6
ByBlock
 62
     7
100
AcDbPoint
 10
48.4638695
 20
60.03950992
 30
0.0
  0
LINE
  5
2BE
330
18
100
AcDbEntity
  8
0
 62
     7
100
AcDbLine
 10
48.4638695
 20
60.87638919
 30
0.0
 11
48.52310068
 21
60.93562037
 31
0.0
  0
LINE
  5
2BF
330
18
100
AcDbEntity
  8
0
 62
     7
100
AcDbLine
 10
48.52310068
 20
59.98027873
 30
0.0
 11
48.4638695
 21
60.03950992
 31
0.0
  0
LINE
  5
2C0
330
18
100
AcDbEntity
  8
0
 62
     7
100
AcDbLine
 10
48.4638695
 20
60.87638919
 30
0.0
 11
48.4638695
 21
60.03950992
 31
0.0
  0
LINE
  5
2C1
330
18
100
AcDbEntity
  8
0
 62
     7
100
AcDbLine
 10
48.52310068
 20
59.98027873
 30
0.0
 11
48.52310068
 21
59.74144332
 31
0.0
  0
LINE
  5
2C2
330
18
100
AcDbEntity
  8
0
 62
     7
100
AcDbLine
 10
48.4638695
 20
61.47252237
 30
0.0
 11
48.4638695
 21
62.30940165
 31
0.0
  0
LINE
  5
2C3
330
18
100
AcDbEntity
  8
0
 62
     7
100
AcDbLine
 10
48.52310068
 20
62.36863283
 30
0.0
 11
48.4638695
 21
62.30940165
 31
0.0
  0
LINE
  5
2C4
330
18
100
AcDbEntity
  8
0
 62
     7
100
AcDbLine
 10
48.4638695
 20
61.47252237
 30
0.0
 11
48.52310068
 21
61.41329119
 31
0.0
  0
LINE
  5
2C5
330
18
100
AcDbEntity
  8
0
 62
     7
100
AcDbLine
 10
48.67261165
 20
62.96572136
 30
0.0
 11
48.67261165
 21
62.60746824
 31
0.0
  0
LINE
  5
2C6
330
18
100
AcDbEntity
  8
0
 62
     7
100
AcDbLine
 10
48.52310068
 20
62.60746824
 30
0.0
 11
48.52310068
 21
62.36863283
 31
0.0
  0
LINE
  5
2C7
330
18
100
AcDbEntity
  8
0
  6
HIDDEN
 62
     7
100
AcDbLine
 10
49.8573353
 20
62.57785265
 30
0.0
 11
49.8573353
 21
59.77105892
 31
0.0
  0
LINE
  5
2C8
330
18
100
AcDbEntity
  8
0
 62
     7
100
AcDbLine
 10
49.09105128
 20
61.41329119
 30
0.0
 11
49.09105128
 21
60.93562037
 31
0.0
  0
ARC
  5
2C9
330
18
100
AcDbEntity
  8
0
 62
     7
100
AcDbCircle
 10
56.45492465
 20
61.17445578
 30
0.0
 40
6.995966819999999
100
AcDbArc
 50
178.01099233
 51
181.98900767
  0
LINE
  5
2CA
330
18
100
AcDbEntity
  8
0
  6
HIDDEN
 62
     7
100
AcDbLine
 10
51.23117947
 20
59.71322373
 30
0.0
 11
49.91656648
 21
59.71182773
 31
0.0
  0
POINT
  5
2CB
330
18
100
AcDbEntity
  8
0
  6
HIDDEN
 62
     7
100
AcDbPoint
 10
49.91656648
 20
59.71182773
 30
0.0
  0
ARC
  5
2CC
330
18
100
AcDbEntity
  8
0
  6
HIDDEN
 62
     7
100
AcDbCircle
 10
49.91656648
 20
59.77105892
 30
0.0
 40
0.05923118
100
AcDbArc
 50
180.0
 51
270.0
  0
LINE
  5
2CD
330
18
100
AcDbEntity
  8
0
 62
     7
100
AcDbLine
 10
49.29654624
 20
60.93562037
 30
0.0
 11
49.82535261999999
 21
60.93562037
 31
0.0
  0
LINE
  5
2CE
330
18
100
AcDbEntity
  8
0
 62
     7
100
AcDbLine
 10
49.29979343
 20
60.03950992
 30
0.0
 11
49.24056225000001
 21
59.98027873
 31
0.0
  0
LINE
  5
2CF
330
18
100
AcDbEntity
  8
0
 62
     7
100
AcDbLine
 10
49.24056225000001
 20
60.93562037
 30
0.0
 11
49.29979343
 21
60.87638919
 31
0.0
  0
LINE
  5
2D0
330
18
100
AcDbEntity
  8
0
 62
     7
100
AcDbLine
 10
49.29979343
 20
60.03950992
 30
0.0
 11
49.29979343
 21
60.87638919
 31
0.0
  0
LINE
  5
2D1
330
18
100
AcDbEntity
  8
0
 62
     7
100
AcDbLine
 10
49.24056225000001
 20
59.98027873
 30
0.0
 11
49.24056225000001
 21
59.74144332
 31
0.0
  0
ARC
  5
2D2
330
18
100
AcDbEntity
  8
0
  6
HIDDEN
 62
     7
100
AcDbCircle
 10
51.42130997
 20
59.62799442000001
 30
0.0
 40
0.17960423
100
AcDbArc
 50
107.53363382
 51
142.78169133
  0
ARC
  5
2D3
330
18
100
AcDbEntity
  8
0
  6
HIDDEN
 62
     7
100
AcDbCircle
 10
51.23111656999999
 20
59.77245488000001
 30
0.0
 40
0.05923118
100
AcDbArc
 50
270.06084268
 51
322.78169133
  0
LINE
  5
2D4
330
18
100
AcDbEntity
  8
0
  6
HIDDEN
 62
     7
100
AcDbLine
 10
49.91656648
 20
62.63708383
 30
0.0
 11
51.23111656999999
 21
62.63708383
 31
0.0
  0
POINT
  5
2D6
330
18
100
AcDbEntity
  8
0
  6
HIDDEN
 62
     7
100
AcDbPoint
 10
49.91656648
 20
62.63708383
 30
0.0
  0
POINT
  5
2D7
330
18
100
AcDbEntity
  8
0
  6
HIDDEN
 62
     7
100
AcDbPoint
 10
49.91656648
 20
62.63708383
 30
0.0
  0
POINT
  5
2D8
330
18
100
AcDbEntity
  8
0
  6
HIDDEN
 62
     7
100
AcDbPoint
 10
50.13342903
 20
62.63708383
 30
0.0
  0
ARC
  5
2D9
330
18
100
AcDbEntity
  8
0
  6
HIDDEN
 62
     7
100
AcDbCircle
 10
49.91656648
 20
62.57785265
 30
0.0
 40
0.05923118
100
AcDbArc
 50
90.0
 51
180.0
  0
LINE
  5
2DB
330
18
100
AcDbEntity
  8
0
 62
     7
100
AcDbLine
 10
49.29654624
 20
61.41329119
 30
0.0
 11
49.82535261999999
 21
61.41329119
 31
0.0
  0
LINE
  5
2DC
330
18
100
AcDbEntity
  8
0
 62
     7
100
AcDbLine
 10
49.29979343
 20
62.30940165
 30
0.0
 11
49.29979343
 21
61.47252237
 31
0.0
  0
LINE
  5
2DD
330
18
100
AcDbEntity
  8
0
 62
     7
100
AcDbLine
 10
49.24056225000001
 20
61.41329119
 30
0.0
 11
49.29979343
 21
61.47252237
 31
0.0
  0
LINE
  5
2DE
330
18
100
AcDbEntity
  8
0
 62
     7
100
AcDbLine
 10
49.29979343
 20
62.30940165
 30
0.0
 11
49.24056225000001
 21
62.36863283
 31
0.0
  0
LINE
  5
2DF
330
18
100
AcDbEntity
  8
0
 62
     7
100
AcDbLine
 10
49.09105128
 20
62.96572136
 30
0.0
 11
49.09105128
 21
62.60746824
 31
0.0
  0
LINE
  5
2E0
330
18
100
AcDbEntity
  8
0
 62
     7
100
AcDbLine
 10
49.24056225000001
 20
62.60746824
 30
0.0
 11
49.24056225000001
 21
62.36863283
 31
0.0
  0
POINT
  5
2E1
330
18
100
AcDbEntity
  8
0
  6
HIDDEN
 62
     7
100
AcDbPoint
 10
51.01425402
 20
62.63708383
 30
0.0
  0
ARC
  5
2E2
330
18
100
AcDbEntity
  8
0
  6
HIDDEN
 62
     7
100
AcDbCircle
 10
51.23111656999999
 20
62.57785265
 30
0.0
 40
0.05923118
100
AcDbArc
 50
0.0
 51
90.0
  0
ARC
  5
2E3
330
18
100
AcDbEntity
  8
0
  6
HIDDEN
 62
     7
100
AcDbCircle
 10
51.46995197999999
 20
61.89096201
 30
0.0
 40
0.17960423
100
AcDbArc
 50
180.0
 51
270.0
  0
LINE
  5
2E4
330
18
100
AcDbEntity
  8
0
  6
HIDDEN
 62
     7
100
AcDbLine
 10
51.29034775
 20
62.57785265
 30
0.0
 11
51.29034775
 21
61.89096201
 31
0.0
  0
LINE
  5
2E6
330
18
100
AcDbEntity
  8
0
  6
ByBlock
 62
     7
100
AcDbLine
 10
15.45557709265863
 20
62.63803916
 30
0.0
 11
29.51322316205402
 21
62.63803915999998
 31
0.0
  0
LINE
  5
2E8
330
18
100
AcDbEntity
  8
0
 62
     7
100
AcDbLine
 10
50.287648745
 20
63.16655097000001
 30
0.0
 11
47.93509410499999
 21
67.51886318
 31
0.0
  0
SOLID
  5
2EB
330
18
100
AcDbEntity
  8
0
 62
     7
100
AcDbTrace
 10
50.375893265
 20
63.21424976000001
 30
0.0
 11
50.19940421499999
 21
63.11885217
 31
0.0
 12
50.573841525
 22
62.63708383
 32
0.0
 13
50.573841525
 23
62.63708383
 33
0.0
  0
LINE
  5
2EC
330
18
100
AcDbEntity
  8
0
 62
     7
100
AcDbLine
 10
47.93509410499999
 20
67.51886318
 30
0.0
 11
47.064935735
 21
67.51886318
 31
0.0
  0
LINE
  5
2EE
330
18
100
AcDbEntity
  8
0
  6
ByBlock
 62
     7
100
AcDbLine
 10
14.94416039
 20
77.31160905999999
 30
0.0
 11
35.71645686072125
 21
77.31160905999999
 31
0.0
  0
LINE
  5
2EF
330
18
100
AcDbEntity
  8
0
  6
ByBlock
 62
     7
100
AcDbLine
 10
15.24509301
 20
75.34121693
 30
0.0
 11
32.65900447072126
 21
75.34121693
 31
0.0
  0
LINE
  5
2F2
330
18
100
AcDbEntity
  8
0
 62
     7
100
AcDbLine
 10
15.76036186
 20
76.79212311
 30
0.0
 11
20.23900964
 21
82.22050726
 31
0.0
  0
LINE
  5
2F3
330
18
100
AcDbEntity
  8
0
 62
     7
100
AcDbLine
 10
19.67231362
 20
76.77422939
 30
0.0
 11
16.05770083
 21
76.77422939
 31
0.0
  0
LINE
  5
2F4
330
18
100
AcDbEntity
  8
0
 62
     7
100
AcDbLine
 10
16.05770083
 20
73.90820447999999
 30
0.0
 11
19.67231362
 21
73.90820447999999
 31
0.0
  0
CIRCLE
  5
2F5
330
18
100
AcDbEntity
  8
0
  6
HIDDEN
 62
     7
100
AcDbCircle
 10
14.70532498
 20
75.34121693
 30
0.0
 40
1.194177049999999
  0
LINE
  5
2F6
330
18
100
AcDbEntity
  8
0
 62
     7
100
AcDbLine
 10
14.70532498
 20
75.04028432
 30
0.0
 11
14.70532498
 21
75.64214955
 31
0.0
  0
LINE
  5
2F7
330
18
100
AcDbEntity
  8
0
 62
     7
100
AcDbLine
 10
14.40439236
 20
75.34121693
 30
0.0
 11
15.0062576
 21
75.34121693
 31
0.0
  0
POINT
  5
2F8
330
18
100
AcDbEntity
  8
0
  6
ByBlock
 62
     7
100
AcDbPoint
 10
15.0062576
 20
75.34121693
 30
0.0
  0
SOLID
  5
2F9
330
18
100
AcDbEntity
  8
0
 62
     7
100
AcDbTrace
 10
15.83728714
 20
76.72774321
 30
0.0
 11
15.68343657
 21
76.85650300999999
 31
0.0
 12
15.37408244
 22
76.33057141
 32
0.0
 13
15.37408244
 23
76.33057141
 33
0.0
  0
POINT
  5
2FA
330
18
100
AcDbEntity
  8
0
  6
ByBlock
 62
     7
100
AcDbPoint
 10
14.70532498
 20
77.31160905999999
 30
0.0
  0
ARC
  5
2FB
330
18
100
AcDbEntity
  8
0
 62
     7
100
AcDbCircle
 10
19.67231362
 20
73.66936907
 30
0.0
 40
3.10486033
100
AcDbArc
 50
0.0
 51
90.0
  0
ARC
  5
2FC
330
18
100
AcDbEntity
  8
0
 62
     7
100
AcDbCircle
 10
21.3181998
 20
71.69945461000001
 30
0.0
 40
2.32816757
100
AcDbArc
 50
129.87914459
 51
180.0
  0
ARC
  5
2FD
330
18
100
AcDbEntity
  8
0
 62
     7
100
AcDbCircle
 10
19.67231362
 20
73.66936907
 30
0.0
 40
0.23883541
100
AcDbArc
 50
309.87914459
 51
90.0
  0
ARC
  5
2FE
330
18
100
AcDbEntity
  8
0
 62
     7
100
AcDbCircle
 10
21.3181998
 20
71.69945461000001
 30
0.0
 40
2.32816757
100
AcDbArc
 50
0.0
 51
50.51141453999999
  0
LINE
  5
2FF
330
18
100
AcDbEntity
  8
0
 62
     7
100
AcDbLine
 10
22.77717394
 20
73.66936907
 30
0.0
 11
22.77717394
 21
73.54193266999999
 31
0.0
  0
ARC
  5
300
330
18
100
AcDbEntity
  8
0
 62
     7
100
AcDbCircle
 10
22.83640512
 20
73.54193266999999
 30
0.0
 40
0.05923118
100
AcDbArc
 50
180.0
 51
230.5114145400001
  0
LINE
  5
301
330
18
100
AcDbEntity
  8
0
 62
     7
100
AcDbLine
 10
20.23900964
 20
82.22050726
 30
0.0
 11
21.41221393
 21
82.22050726
 31
0.0
  0
SOLID
  5
302
330
18
100
AcDbEntity
  8
0
  6
ByBlock
 62
     7
100
AcDbTrace
 10
31.85651750072126
 20
74.65337094999999
 30
0.0
 11
32.08579949072126
 21
74.65337094999999
 31
0.0
 12
31.97115849072126
 22
75.34121693
 32
0.0
 13
31.97115849072126
 23
75.34121693
 33
0.0
  0
POINT
  5
303
330
18
100
AcDbEntity
  8
0
  6
ByBlock
 62
     7
100
AcDbPoint
 10
31.97115849072126
 20
75.34121693
 30
0.0
  0
SOLID
  5
304
330
18
100
AcDbEntity
  8
0
  6
ByBlock
 62
     7
100
AcDbTrace
 10
34.91396989072125
 20
76.62376308
 30
0.0
 11
35.14325188072125
 21
76.62376308
 31
0.0
 12
35.02861088072126
 22
77.31160905999999
 32
0.0
 13
35.02861088072126
 23
77.31160905999999
 33
0.0
  0
POINT
  5
305
330
18
100
AcDbEntity
  8
0
  6
ByBlock
 62
     7
100
AcDbPoint
 10
35.02861088072126
 20
77.31160905999999
 30
0.0
  0
LINE
  5
306
330
18
100
AcDbEntity
  8
0
  6
ByBlock
 62
     7
100
AcDbLine
 10
90.35971157
 20
20.82471811
 30
0.0
 11
97.925062
 21
20.82471811
 31
0.0
  0
LINE
  5
307
330
18
100
AcDbEntity
  8
0
  6
ByBlock
 62
     7
100
AcDbLine
 10
93.7034073
 20
23.30358606
 30
0.0
 11
97.925062
 21
23.30358606
 31
0.0
  0
LINE
  5
308
330
18
100
AcDbEntity
  8
0
  6
ByBlock
 62
     7
100
AcDbLine
 10
98.37407257
 20
24.99792098
 30
0.0
 11
82.91643081
 21
24.99792098
 31
0.0
  0
LINE
  5
309
330
18
100
AcDbEntity
  8
0
  6
ByBlock
 62
     7
100
AcDbLine
 10
98.37407257
 20
36.46202065
 30
0.0
 11
82.91643081
 21
36.46202065
 31
0.0
  0
LINE
  5
30A
330
18
100
AcDbEntity
  8
0
  6
ByBlock
 62
     7
100
AcDbLine
 10
96.82164241
 20
28.08496264
 30
0.0
 11
86.02485161
 21
28.08496264
 31
0.0
  0
LINE
  5
30B
330
18
100
AcDbEntity
  8
0
 62
     7
100
AcDbLine
 10
97.74878218000001
 20
36.25544922
 30
0.0
 11
90.94709587
 21
32.8064311
 31
0.0
  0
LINE
  5
30C
330
18
100
AcDbEntity
  8
0
 62
     7
100
AcDbLine
 10
97.74878218000001
 20
25.20449242
 30
0.0
 11
90.94709587
 21
28.65351053
 31
0.0
  0
TEXT
  5
30D
330
18
100
AcDbEntity
  8
0
 62
     7
100
AcDbText
 10
89.48511749999999
 20
17.51728868
 30
0.0
 40
0.75
  1
ALUMINUM BASE SCREEN MODEL
  7
ROMANS
100
AcDbText
  0
LINE
  5
30E
330
18
100
AcDbEntity
  8
0
 62
     7
100
AcDbLine
 10
59.445989
 20
2.9508876
 30
0.0
 11
59.445989
 21
30.71192145
 31
0.0
  0
LINE
  5
30F
330
18
100
AcDbEntity
  8
0
 62
     7
100
AcDbLine
 10
69.32034046
 20
2.9508876
 30
0.0
 11
69.32034046
 21
32.40466741
 31
0.0
  0
TEXT
  5
310
330
18
100
AcDbEntity
  8
0
100
AcDbText
 10
63.4555967309121
 20
9.440514599428432
 30
0.0
 40
0.7053108200000001
  1
2.9
  7
ROMANS
100
AcDbText
  0
TEXT
  5
311
330
18
100
AcDbEntity
  8
0
100
AcDbText
 10
54.07717533747749
 20
9.440514599428432
 30
0.0
 40
0.7053108200000001
  1
74
  7
ROMANS
100
AcDbText
  0
TEXT
  5
312
330
18
100
AcDbEntity
  8
0
100
AcDbText
 10
62.7486527638309
 20
5.620047249999998
 30
0.0
 40
0.7053108200000001
  1
12.0
  7
ROMANS
100
AcDbText
  0
TEXT
  5
313
330
18
100
AcDbEntity
  8
0
100
AcDbText
 10
62.7486527638309
 20
4.382989160000001
 30
0.0
 40
0.7053108200000001
  1
18.8
  7
ROMANS
100
AcDbText
  0
TEXT
  5
314
330
18
100
AcDbEntity
  8
0
100
AcDbText
 10
64.08222897618097
 20
3.222292670000001
 30
0.0
 40
0.7053108200000001
  1
.6 DIA
  7
ROMANS
100
AcDbText
  0
TEXT
  5
315
330
18
100
AcDbEntity
  8
0
100
AcDbText
 10
62.7486527638309
 20
8.18626824
 30
0.0
 40
0.7053108200000001
  1
12.0
  7
ROMANS
100
AcDbText
  0
TEXT
  5
316
330
18
100
AcDbEntity
  8
0
100
AcDbText
 10
63.43107005564727
 20
6.944921199999999
 30
0.0
 40
0.7053108200000001
  1
3.3
  7
ROMANS
100
AcDbText
  0
TEXT
  5
317
330
18
100
AcDbEntity
  8
0
100
AcDbText
 10
53.30349202241076
 20
5.620047249999998
 30
0.0
 40
0.7053108200000001
  1
305
  7
ROMANS
100
AcDbText
  0
TEXT
  5
318
330
18
100
AcDbEntity
  8
0
100
AcDbText
 10
53.30349202241076
 20
4.382989160000001
 30
0.0
 40
0.7053108200000001
  1
480
  7
ROMANS
100
AcDbText
  0
TEXT
  5
319
330
18
100
AcDbEntity
  8
0
100
AcDbText
 10
53.99534837547783
 20
3.222292670000001
 30
0.0
 40
0.7053108200000001
  1
15 DIA.
  7
ROMANS
100
AcDbText
  0
TEXT
  5
31A
330
18
100
AcDbEntity
  8
0
100
AcDbText
 10
53.99578047241076
 20
6.944921199999999
 30
0.0
 40
0.7053108200000001
  1
84
  7
ROMANS
100
AcDbText
  0
TEXT
  5
31B
330
18
100
AcDbEntity
  8
0
100
AcDbText
 10
53.30349202241076
 20
8.18626824
 30
0.0
 40
0.7053108200000001
  1
305
  7
ROMANS
100
AcDbText
  0
TEXT
  5
31C
330
18
100
AcDbEntity
  8
0
100
AcDbText
 10
62.7486527638309
 20
16.88215406
 30
0.0
 40
0.7053108200000001
  1
14.3
  7
ROMANS
100
AcDbText
  0
TEXT
  5
31D
330
18
100
AcDbEntity
  8
0
100
AcDbText
 10
63.43107005564727
 20
10.611442
 30
0.0
 40
0.7053108200000001
  1
2.8
  7
ROMANS
100
AcDbText
  0
TEXT
  5
31E
330
18
100
AcDbEntity
  8
0
100
AcDbText
 10
62.7486527638309
 20
13.23395051
 30
0.0
 40
0.7053108200000001
  1
11.1
  7
ROMANS
100
AcDbText
  0
TEXT
  5
31F
330
18
100
AcDbEntity
  8
0
100
AcDbText
 10
64.05661915766174
 20
11.98003617
 30
0.0
 40
0.7053108200000001
  1
.6
  7
ROMANS
100
AcDbText
  0
TEXT
  5
320
330
18
100
AcDbEntity
  8
0
100
AcDbText
 10
62.7486527638309
 20
14.45272168
 30
0.0
 40
0.7053108200000001
  1
10.1
  7
ROMANS
100
AcDbText
  0
TEXT
  5
321
330
18
100
AcDbEntity
  8
0
100
AcDbText
 10
62.7672163138309
 20
15.70393271
 30
0.0
 40
0.7053108200000001
  1
12.1
  7
ROMANS
100
AcDbText
  0
TEXT
  5
322
330
18
100
AcDbEntity
  8
0
100
AcDbText
 10
63.43107005564727
 20
20.68444691
 30
0.0
 40
0.7053108200000001
  1
3.3
  7
ROMANS
100
AcDbText
  0
TEXT
  5
323
330
18
100
AcDbEntity
  8
0
100
AcDbText
 10
62.7486527638309
 20
19.43053257
 30
0.0
 40
0.7053108200000001
  1
12.3
  7
ROMANS
100
AcDbText
  0
TEXT
  5
324
330
18
100
AcDbEntity
  8
0
100
AcDbText
 10
62.7486527638309
 20
18.17391489999999
 30
0.0
 40
0.7053108200000001
  1
16.8
  7
ROMANS
100
AcDbText
  0
TEXT
  5
325
330
18
100
AcDbEntity
  8
0
100
AcDbText
 10
53.30349202241076
 20
16.88215406
 30
0.0
 40
0.7053108200000001
  1
363
  7
ROMANS
100
AcDbText
  0
TEXT
  5
326
330
18
100
AcDbEntity
  8
0
100
AcDbText
 10
53.30349202241076
 20
13.23395051
 30
0.0
 40
0.7053108200000001
  1
282
  7
ROMANS
100
AcDbText
  0
TEXT
  5
327
330
18
100
AcDbEntity
  8
0
100
AcDbText
 10
54.22325290301624
 20
10.611442
 30
0.0
 40
0.7053108200000001
  1
71
  7
ROMANS
100
AcDbText
  0
TEXT
  5
328
330
18
100
AcDbEntity
  8
0
100
AcDbText
 10
53.99578047241076
 20
11.98003617
 30
0.0
 40
0.7053108200000001
  1
15
  7
ROMANS
100
AcDbText
  0
TEXT
  5
329
330
18
100
AcDbEntity
  8
0
100
AcDbText
 10
53.30349202241076
 20
14.45272168
 30
0.0
 40
0.7053108200000001
  1
257
  7
ROMANS
100
AcDbText
  0
TEXT
  5
32A
330
18
100
AcDbEntity
  8
0
100
AcDbText
 10
53.30349202241076
 20
15.70393271
 30
0.0
 40
0.7053108200000001
  1
307
  7
ROMANS
100
AcDbText
  0
TEXT
  5
32B
330
18
100
AcDbEntity
  8
0
100
AcDbText
 10
54.04876692241075
 20
20.68444691
 30
0.0
 40
0.7053108200000001
  1
84
  7
ROMANS
100
AcDbText
  0
TEXT
  5
32C
330
18
100
AcDbEntity
  8
0
100
AcDbText
 10
53.30349202241076
 20
18.17391489999999
 30
0.0
 40
0.7053108200000001
  1
427
  7
ROMANS
100
AcDbText
  0
TEXT
  5
32D
330
18
100
AcDbEntity
  8
0
100
AcDbText
 10
53.30349202241076
 20
19.43053257
 30
0.0
 40
0.7053108200000001
  1
312
  7
ROMANS
100
AcDbText
  0
TEXT
  5
32E
330
18
100
AcDbEntity
  8
0
100
AcDbText
 10
53.22292294241075
 20
25.5992767
 30
0.0
 40
0.7053108200000001
  1
432
  7
ROMANS
100
AcDbText
  0
TEXT
  5
32F
330
18
100
AcDbEntity
  8
0
100
AcDbText
 10
53.29965539241076
 20
23.12914992
 30
0.0
 40
0.7053108200000001
  1
823
  7
ROMANS
100
AcDbText
  0
TEXT
  5
330
330
18
100
AcDbEntity
  8
0
100
AcDbText
 10
54.22883758261995
 20
21.90051476
 30
0.0
 40
0.7053108200000001
  1
71
  7
ROMANS
100
AcDbText
  0
TEXT
  5
331
330
18
100
AcDbEntity
  8
0
 62
     7
100
AcDbText
 10
51.22700512000001
 20
29.53580826
 30
0.0
 40
0.7053108200000001
  1
METRIC (mm)
  7
ROMANS
100
AcDbText
  0
TEXT
  5
332
330
18
100
AcDbEntity
  8
0
100
AcDbText
 10
62.7870189938309
 20
28.0943935
 30
0.0
 40
0.7053108200000001
  1
19.9
  7
ROMANS
100
AcDbText
  0
TEXT
  5
333
330
18
100
AcDbEntity
  8
0
100
AcDbText
 10
62.7870189938309
 20
24.34521777
 30
0.0
 40
0.7053108200000001
  1
30.0
  7
ROMANS
100
AcDbText
  0
TEXT
  5
334
330
18
100
AcDbEntity
  8
0
100
AcDbText
 10
53.34185824241076
 20
24.34521777
 30
0.0
 40
0.7053108200000001
  1
762
  7
ROMANS
100
AcDbText
  0
TEXT
  5
335
330
18
100
AcDbEntity
  8
0
100
AcDbText
 10
53.34185824241076
 20
28.0943935
 30
0.0
 40
0.7053108200000001
  1
505
  7
ROMANS
100
AcDbText
  0
TEXT
  5
336
330
18
100
AcDbEntity
  8
0
100
AcDbText
 10
54.00272745241076
 20
26.79992934
 30
0.0
 40
0.7053108200000001
  1
58
  7
ROMANS
100
AcDbText
  0
LINE
  5
337
330
18
100
AcDbEntity
  8
0
  6
ByBlock
 62
     7
100
AcDbLine
 10
89.67186558999999
 20
30.49113541
 30
0.0
 11
89.67186558999999
 21
20.13687213
 31
0.0
  0
LINE
  5
338
330
18
100
AcDbEntity
  8
0
  6
ByBlock
 62
     7
100
AcDbLine
 10
93.01556131999999
 20
30.22268441
 30
0.0
 11
93.01556131999999
 21
22.61574008
 31
0.0
  0
SOLID
  5
339
330
18
100
AcDbEntity
  8
0
  6
ByBlock
 62
     7
100
AcDbTrace
 10
83.48963578999999
 20
25.68576696
 30
0.0
 11
83.71891779
 21
25.68576696
 31
0.0
 12
83.60427679
 22
24.99792098
 32
0.0
 13
83.60427679
 23
24.99792098
 33
0.0
  0
POINT
  5
33A
330
18
100
AcDbEntity
  8
0
  6
ByBlock
 62
     7
100
AcDbPoint
 10
83.60427679
 20
24.99792098
 30
0.0
  0
SOLID
  5
33B
330
18
100
AcDbEntity
  8
0
  6
ByBlock
 62
     7
100
AcDbTrace
 10
90.35971157
 20
20.93935911
 30
0.0
 11
90.35971157
 21
20.71007712
 31
0.0
 12
89.67186558999999
 22
20.82471811
 32
0.0
 13
89.67186558999999
 23
20.82471811
 33
0.0
  0
SOLID
  5
33C
330
18
100
AcDbEntity
  8
0
  6
ByBlock
 62
     7
100
AcDbTrace
 10
93.7034073
 20
23.41822706
 30
0.0
 11
93.7034073
 21
23.18894506
 31
0.0
 12
93.01556131999999
 22
23.30358606
 32
0.0
 13
93.01556131999999
 23
23.30358606
 33
0.0
  0
TEXT
  5
33D
330
18
100
AcDbEntity
  8
0
  6
ByBlock
 62
     7
100
AcDbText
 10
83.34218155190475
 20
30.55320216
 30
0.0
 40
0.6879999999999999
  1
T
  7
ROMANS
 72
     4
 11
83.60427679
 21
30.89720216
 31
0.0
100
AcDbText
  0
SOLID
  5
33E
330
18
100
AcDbEntity
  8
0
  6
ByBlock
 62
     7
100
AcDbTrace
 10
83.48963578999999
 20
35.77417467
 30
0.0
 11
83.71891779
 21
35.77417467
 31
0.0
 12
83.60427679
 22
36.46202065
 32
0.0
 13
83.60427679
 23
36.46202065
 33
0.0
  0
LINE
  5
33F
330
18
100
AcDbEntity
  8
0
  6
ByBlock
 62
     7
100
AcDbLine
 10
83.60427679
 20
35.77417467
 30
0.0
 11
83.60427679
 21
31.58504814
 31
0.0
  0
LINE
  5
340
330
18
100
AcDbEntity
  8
0
  6
ByBlock
 62
     7
100
AcDbLine
 10
89.43303017999999
 20
30.72997082
 30
0.0
 11
86.02485161
 21
30.72997082
 31
0.0
  0
LINE
  5
341
330
18
100
AcDbEntity
  8
0
  6
ByBlock
 62
     7
100
AcDbLine
 10
83.60427679
 20
25.68576696
 30
0.0
 11
83.60427679
 21
30.20935618
 31
0.0
  0
SOLID
  5
343
330
18
100
AcDbEntity
  8
0
  6
ByBlock
 62
     7
100
AcDbTrace
 10
86.82733858000002
 20
27.39711666
 30
0.0
 11
86.59805659000001
 21
27.39711666
 31
0.0
 12
86.71269759000001
 22
28.08496264
 32
0.0
 13
86.71269759000001
 23
28.08496264
 33
0.0
  0
LINE
  5
344
330
18
100
AcDbEntity
  8
0
  6
ByBlock
 62
     7
100
AcDbLine
 10
86.71269759000001
 20
27.39711666
 30
0.0
 11
86.71269759000001
 21
26.71409424
 31
0.0
  0
POINT
  5
345
330
18
100
AcDbEntity
  8
0
  6
ByBlock
 62
     7
100
AcDbPoint
 10
86.71269759000001
 20
30.72997082
 30
0.0
  0
SOLID
  5
346
330
18
100
AcDbEntity
  8
0
  6
ByBlock
 62
     7
100
AcDbTrace
 10
86.82733858000002
 20
31.41781679999999
 30
0.0
 11
86.59805659000001
 21
31.41781679999999
 31
0.0
 12
86.71269759000001
 22
30.72997082
 32
0.0
 13
86.71269759000001
 23
30.72997082
 33
0.0
  0
LINE
  5
347
330
18
100
AcDbEntity
  8
0
  6
ByBlock
 62
     7
100
AcDbLine
 10
86.71269759000001
 20
31.41781679999999
 30
0.0
 11
86.71269760499997
 21
32.00267932
 31
0.0
  0
ARC
  5
348
330
18
100
AcDbEntity
  8
0
 62
     7
100
AcDbCircle
 10
92.00003316
 20
30.72997082
 30
0.0
 40
2.32816757
100
AcDbArc
 50
116.88878204
 51
243.11121796
  0
POINT
  5
349
330
18
100
AcDbEntity
  8
0
  6
ByBlock
 62
     7
100
AcDbPoint
 10
89.67186558999999
 20
30.72997082
 30
0.0
  0
POINT
  5
34A
330
18
100
AcDbEntity
  8
0
  6
ByBlock
 62
     7
100
AcDbPoint
 10
89.67186558999999
 20
30.72997082
 30
0.0
  0
CIRCLE
  5
34B
330
18
100
AcDbEntity
  8
0
 62
     7
100
AcDbCircle
 10
93.01556131999999
 20
30.72997082
 30
0.0
 40
0.268451
  0
POINT
  5
34C
330
18
100
AcDbEntity
  8
0
  6
ByBlock
 62
     7
100
AcDbPoint
 10
93.01556131999999
 20
30.46151982
 30
0.0
  0
LINE
  5
34D
330
18
100
AcDbEntity
  8
0
  6
ByBlock
 62
     7
100
AcDbLine
 10
107.55395038
 20
30.49113541
 30
0.0
 11
107.55395038
 21
20.13687213
 31
0.0
  0
LINE
  5
34E
330
18
100
AcDbEntity
  8
0
  6
ByBlock
 62
     7
100
AcDbLine
 10
104.21025464
 20
30.22268441
 30
0.0
 11
104.21025464
 21
22.61574008
 31
0.0
  0
ARC
  5
34F
330
18
100
AcDbEntity
  8
0
 62
     7
100
AcDbCircle
 10
98.61290798
 20
26.90860426
 30
0.0
 40
1.910683279999999
100
AcDbArc
 50
243.11121796
 51
296.8887820400001
  0
LINE
  5
350
330
18
100
AcDbEntity
  8
0
  6
ByBlock
 62
     7
100
AcDbLine
 10
106.8661044
 20
20.82471811
 30
0.0
 11
99.30075395999999
 21
20.82471811
 31
0.0
  0
LINE
  5
351
330
18
100
AcDbEntity
  8
0
  6
ByBlock
 62
     7
100
AcDbLine
 10
103.52240866
 20
23.30358606
 30
0.0
 11
99.30075395999999
 21
23.30358606
 31
0.0
  0
TEXT
  5
352
330
18
100
AcDbEntity
  8
0
  6
ByBlock
 62
     7
100
AcDbText
 10
98.21976512285715
 20
20.48071811
 30
0.0
 40
0.6879999999999999
  1
W
  7
ROMANS
 72
     4
 11
98.61290798
 21
20.82471811
 31
0.0
100
AcDbText
  0
TEXT
  5
353
330
18
100
AcDbEntity
  8
0
  6
ByBlock
 62
     7
100
AcDbText
 10
98.31805083714286
 20
22.95958606
 30
0.0
 40
0.6879999999999999
  1
V
  7
ROMANS
 72
     4
 11
98.61290798
 21
23.30358606
 31
0.0
100
AcDbText
  0
POINT
  5
354
330
18
100
AcDbEntity
  8
0
  6
ByBlock
 62
     7
100
AcDbPoint
 10
98.61290798
 20
24.99792098
 30
0.0
  0
SOLID
  5
355
330
18
100
AcDbEntity
  8
0
  6
ByBlock
 62
     7
100
AcDbTrace
 10
103.52240866
 20
23.41822706
 30
0.0
 11
103.52240866
 21
23.18894506
 31
0.0
 12
104.21025464
 22
23.30358606
 32
0.0
 13
104.21025464
 23
23.30358606
 33
0.0
  0
POINT
  5
356
330
18
100
AcDbEntity
  8
0
  6
ByBlock
 62
     7
100
AcDbPoint
 10
104.21025464
 20
23.30358606
 30
0.0
  0
SOLID
  5
357
330
18
100
AcDbEntity
  8
0
  6
ByBlock
 62
     7
100
AcDbTrace
 10
106.8661044
 20
20.93935911
 30
0.0
 11
106.8661044
 21
20.71007712
 31
0.0
 12
107.55395038
 22
20.82471811
 32
0.0
 13
107.55395038
 23
20.82471811
 33
0.0
  0
POINT
  5
358
330
18
100
AcDbEntity
  8
0
  6
ByBlock
 62
     7
100
AcDbPoint
 10
107.55395038
 20
20.82471811
 30
0.0
  0
LINE
  5
359
330
18
100
AcDbEntity
  8
0
 62
     7
100
AcDbLine
 10
99.47703377999999
 20
25.20449242
 30
0.0
 11
106.27872009
 21
28.65351053
 31
0.0
  0
LINE
  5
35A
330
18
100
AcDbEntity
  8
0
 62
     7
100
AcDbLine
 10
99.47703377999999
 20
36.25544922
 30
0.0
 11
106.27872009
 21
32.8064311
 31
0.0
  0
LINE
  5
35B
330
18
100
AcDbEntity
  8
0
 62
     7
100
AcDbLine
 10
104.62622534
 20
31.49443227
 30
0.0
 11
106.77725157
 21
35.41756676
 31
0.0
  0
LINE
  5
35D
330
18
100
AcDbEntity
  8
0
  6
HIDDEN
 62
     7
100
AcDbLine
 10
96.64251585
 20
28.10278131
 30
0.0
 11
100.58330011
 21
28.10278131
 31
0.0
  0
LINE
  5
35E
330
18
100
AcDbEntity
  8
0
  6
HIDDEN
 62
     7
100
AcDbLine
 10
96.64251585
 20
28.10278131
 30
0.0
 11
96.64251585
 21
30.10437685
 31
0.0
  0
LINE
  5
361
330
18
100
AcDbEntity
  8
0
  6
HIDDEN
 62
     7
100
AcDbLine
 10
100.58330011
 20
28.10278131
 30
0.0
 11
100.58330011
 21
30.10437685
 31
0.0
  0
CIRCLE
  5
364
330
18
100
AcDbEntity
  8
0
 62
     7
100
AcDbCircle
 10
104.21025464
 20
30.72997082
 30
0.0
 40
0.268451
  0
POINT
  5
365
330
18
100
AcDbEntity
  8
0
  6
ByBlock
 62
     7
100
AcDbPoint
 10
104.21025464
 20
30.46151982
 30
0.0
  0
SOLID
  5
366
330
18
100
AcDbEntity
  8
0
 62
     7
100
AcDbTrace
 10
104.71418265
 20
31.44620591
 30
0.0
 11
104.53826802
 21
31.54265863
 31
0.0
 12
104.33686718
 22
30.96668838
 32
0.0
 13
104.33686718
 23
30.96668838
 33
0.0
  0
ARC
  5
367
330
18
100
AcDbEntity
  8
0
 62
     7
100
AcDbCircle
 10
98.61290798
 20
34.55133737
 30
0.0
 40
1.910683279999999
100
AcDbArc
 50
63.11121796
 51
116.88878204
  0
POINT
  5
368
330
18
100
AcDbEntity
  8
0
  6
ByBlock
 62
     7
100
AcDbPoint
 10
98.61290798
 20
36.46202065
 30
0.0
  0
ARC
  5
369
330
18
100
AcDbEntity
  8
0
 62
     7
100
AcDbCircle
 10
105.22578281
 20
30.72997082
 30
0.0
 40
2.32816757
100
AcDbArc
 50
296.8887820400001
 51
63.11121796
  0
POINT
  5
36A
330
18
100
AcDbEntity
  8
0
  6
ByBlock
 62
     7
100
AcDbPoint
 10
107.55395038
 20
30.72997082
 30
0.0
  0
LINE
  5
36B
330
18
100
AcDbEntity
  8
0
 62
     7
100
AcDbLine
 10
106.77725157
 20
35.41756676
 30
0.0
 11
107.54036358
 21
35.41756676
 31
0.0
  0
TEXT
  5
36C
330
18
100
AcDbEntity
  8
0
 62
     7
100
AcDbText
 10
108.1829565323809
 20
35.07292118
 30
0.0
 40
0.6879999999999999
  1
X
  7
ROMANS
 72
     4
 11
108.51057558
 21
35.41692118
 31
0.0
100
AcDbText
  0
LINE
  5
36D
330
18
100
AcDbEntity
  8
0
  6
ByBlock
 62
     7
100
AcDbLine
 10
97.9390343
 20
50.37488320000001
 30
0.0
 11
86.24458606999999
 21
50.37488320000001
 31
0.0
  0
LINE
  5
36E
330
18
100
AcDbEntity
  8
0
  6
ByBlock
 62
     7
100
AcDbLine
 10
97.33568508000001
 20
70.27822149000001
 30
0.0
 11
86.26657053
 21
70.27822149000001
 31
0.0
  0
ARC
  5
36F
330
18
100
AcDbEntity
  8
0
 62
     7
100
AcDbCircle
 10
94.09912303
 20
51.98749989
 30
0.0
 40
0.17960423
100
AcDbArc
 50
110.0
 51
270.0
  0
LINE
  5
370
330
18
100
AcDbEntity
  8
0
 62
     7
100
AcDbLine
 10
89.20768939
 20
52.52440189
 30
0.0
 11
94.52416560999999
 21
52.52440189
 31
0.0
  0
LINE
  5
371
330
18
100
AcDbEntity
  8
0
 62
     7
100
AcDbLine
 10
89.53775993
 20
50.73313632
 30
0.0
 11
96.19967545999999
 21
50.73313632
 31
0.0
  0
LINE
  5
372
330
18
100
AcDbEntity
  8
0
 62
     7
100
AcDbLine
 10
89.53775993
 20
50.49430091
 30
0.0
 11
96.34970152000001
 21
50.49430091
 31
0.0
  0
LINE
  5
373
330
18
100
AcDbEntity
  8
0
 62
     7
100
AcDbLine
 10
107.41984472
 20
48.10499147
 30
0.0
 11
89.53775993
 21
48.10499147
 31
0.0
  0
LINE
  5
374
330
18
100
AcDbEntity
  8
0
 62
     7
100
AcDbLine
 10
93.95621500999999
 20
48.46324458
 30
0.0
 11
93.7173796
 21
48.46324458
 31
0.0
  0
LINE
  5
375
330
18
100
AcDbEntity
  8
0
 62
     7
100
AcDbLine
 10
93.7173796
 20
48.94187075
 30
0.0
 11
93.95621500999999
 21
48.94187075
 31
0.0
  0
LINE
  5
376
330
18
100
AcDbEntity
  8
0
 62
     7
100
AcDbLine
 10
96.15780352999999
 20
71.24368774
 30
0.0
 11
93.01088232999999
 21
70.40856714
 31
0.0
  0
LINE
  5
377
330
18
100
AcDbEntity
  8
0
 62
     7
100
AcDbLine
 10
93.74266211
 20
67.76023277
 30
0.0
 11
96.82783197
 21
68.60940900999999
 31
0.0
  0
TEXT
  5
378
330
18
100
AcDbEntity
  8
0
 62
     7
100
AcDbText
 10
85.49462113
 20
64.21954910000001
 30
0.0
 40
0.75
  1
FOOTED BASE FOR STAINLESS STEEL &
  7
ROMANS
100
AcDbText
  0
TEXT
  5
379
330
18
100
AcDbEntity
  8
0
 62
     7
100
AcDbText
 10
91.21544404999999
 20
62.94576025
 30
0.0
 40
0.75
  1
ALLOY C MODELS
  7
ROMANS
100
AcDbText
  0
LINE
  5
37A
330
18
100
AcDbEntity
  8
0
 62
     7
100
AcDbLine
 10
94.09558452000002
 20
75.17350352
 30
0.0
 11
92.533569363459
 21
75.17350352
 31
0.0
  0
LINE
  5
37B
330
18
100
AcDbEntity
  8
0
  6
ByBlock
 62
     7
100
AcDbLine
 10
86.95441651000001
 20
70.96606747
 30
0.0
 11
86.95441651000001
 21
71.65391345
 31
0.0
  0
LINE
  5
37C
330
18
100
AcDbEntity
  8
0
 62
     7
100
AcDbLine
 10
58.78309223
 20
70.23945539999999
 30
0.0
 11
58.78309223
 21
71.69849927
 31
0.0
  0
LINE
  5
37D
330
18
100
AcDbEntity
  8
0
 62
     7
100
AcDbLine
 10
54.12675708
 20
70.23945539999999
 30
0.0
 11
54.12675708
 21
71.69849927
 31
0.0
  0
LINE
  5
37E
330
18
100
AcDbEntity
  8
0
  6
CENTERX2
 62
     7
100
AcDbLine
 10
56.45492465
 20
77.60670765000002
 30
0.0
 11
56.45492465
 21
46.05208855999999
 31
0.0
  0
LINE
  5
37F
330
18
100
AcDbEntity
  8
0
 62
     7
100
AcDbLine
 10
93.9208164
 20
71.64053866999999
 30
0.0
 11
93.35286578999999
 21
71.43382155000001
 31
0.0
  0
LINE
  5
380
330
18
100
AcDbEntity
  8
0
 62
     7
100
AcDbLine
 10
88.60434017999999
 20
71.64053866999999
 30
0.0
 11
89.17229078
 21
71.43382155000001
 31
0.0
  0
LINE
  5
381
330
18
100
AcDbEntity
  8
0
 62
     7
100
AcDbLine
 10
56.96254879
 20
59.34659076
 30
0.0
 11
63.37322412999999
 21
71.29503750000001
 31
0.0
  0
TEXT
  5
382
330
18
100
AcDbEntity
  8
0
 62
     7
100
AcDbText
 10
64.58400486839043
 20
70.90515415714286
 30
0.0
 40
0.6879999999999999
  1
25 mm (1")
  7
ROMANS
 72
     4
 11
67.90933820172377
 21
71.2000113
 31
0.0
100
AcDbText
  0
LINE
  5
384
330
18
100
AcDbEntity
  8
0
  6
ByBlock
 62
     7
100
AcDbLine
 10
67.45724868
 20
57.76961818
 30
0.0
 11
67.45724868
 21
53.30148534
 31
0.0
  0
LINE
  5
385
330
18
100
AcDbEntity
  8
0
  6
ByBlock
 62
     7
100
AcDbLine
 10
64.44597981
 20
59.80067451
 30
0.0
 11
64.44597981
 21
43.84294911
 31
0.0
  0
LINE
  5
386
330
18
100
AcDbEntity
  8
0
 62
     7
100
AcDbLine
 10
54.12675708
 20
56.31327507
 30
0.0
 11
54.12675708
 21
51.63990903000001
 31
0.0
  0
LINE
  5
387
330
18
100
AcDbEntity
  8
0
 62
     7
100
AcDbLine
 10
58.78309223
 20
56.31327507
 30
0.0
 11
58.78309223
 21
51.63990903000001
 31
0.0
  0
ARC
  5
388
330
18
100
AcDbEntity
  8
0
 62
     7
100
AcDbCircle
 10
56.45492465
 20
61.17445578
 30
0.0
 40
6.63387275
100
AcDbArc
 50
290.54552396
 51
357.9367679500001
  0
ARC
  5
389
330
18
100
AcDbEntity
  8
0
 62
     7
100
AcDbCircle
 10
56.45492465
 20
61.17445578
 30
0.0
 40
7.162361609999999
100
AcDbArc
 50
288.96895895
 51
358.08906629
  0
LINE
  5
38A
330
18
100
AcDbEntity
  8
0
  6
ByBlock
 62
     7
100
AcDbLine
 10
61.88890789
 20
46.76981454999999
 30
0.0
 11
68.14509466
 21
46.76981454999999
 31
0.0
  0
LINE
  5
38B
330
18
100
AcDbEntity
  8
0
  6
ByBlock
 62
     7
100
AcDbLine
 10
63.75813383
 20
44.53079509000001
 30
0.0
 11
57.02812964
 21
44.53079509000001
 31
0.0
  0
LINE
  5
38D
330
18
100
AcDbEntity
  8
0
  6
Continuous
 62
     7
100
AcDbLine
 10
53.82773515
 20
47.79927495
 30
0.0
 11
53.82773515
 21
50.73663023
 31
0.0
  0
LINE
  5
38E
330
18
100
AcDbEntity
  8
0
 62
     7
100
AcDbLine
 10
54.95958414
 20
48.32832808
 30
0.0
 11
52.64724411
 21
47.24748537
 31
0.0
  0
ARC
  5
38F
330
18
100
AcDbEntity
  8
0
 62
     7
100
AcDbCircle
 10
56.45492465
 20
49.0377956
 30
0.0
 40
1.43205712
100
AcDbArc
 50
281.63276719
 51
0.0
  0
ARC
  5
390
330
18
100
AcDbEntity
  8
0
 62
     7
100
AcDbCircle
 10
56.45492465
 20
49.0377956
 30
0.0
 40
1.43205712
100
AcDbArc
 50
180.0
 51
258.36723281
  0
LINE
  5
391
330
18
100
AcDbEntity
  8
0
 62
     7
100
AcDbLine
 10
57.95026516
 20
48.32832808
 30
0.0
 11
60.26260520000001
 21
47.24748537
 31
0.0
  0
TEXT
  5
393
330
18
100
AcDbEntity
  8
0
  6
ByBlock
 62
     7
100
AcDbText
 10
56.22559131666666
 20
44.18679509
 30
0.0
 40
0.6879999999999999
  1
J
  7
ROMANS
 72
     1
 11
56.45492465
 21
44.53079509000001
 31
0.0
100
AcDbText
 73
     2
  0
ARC
  5
394
330
18
100
AcDbEntity
  8
0
 62
     7
100
AcDbCircle
 10
56.78317175
 20
47.44333040999999
 30
0.0
 40
0.19584504
100
AcDbArc
 50
101.63276719
 51
270.0
  0
ARC
  5
395
330
18
100
AcDbEntity
  8
0
 62
     7
100
AcDbCircle
 10
56.12667755
 20
47.44333040999999
 30
0.0
 40
0.19584504
100
AcDbArc
 50
270.0
 51
78.36723281000001
  0
POINT
  5
396
330
18
100
AcDbEntity
  8
0
  6
ByBlock
 62
     7
100
AcDbPoint
 10
61.65007248
 20
46.76981454999999
 30
0.0
  0
ARC
  5
397
330
18
100
AcDbEntity
  8
0
 62
     7
100
AcDbCircle
 10
61.65007248
 20
46.82904574000001
 30
0.0
 40
0.05923118
100
AcDbArc
 50
270.0
 51
0.0
  0
ARC
  5
398
330
18
100
AcDbEntity
  8
0
 62
     7
100
AcDbCircle
 10
61.65007248
 20
47.18825419
 30
0.0
 40
0.05923118
100
AcDbArc
 50
0.0
 51
90.0
  0
LINE
  5
399
330
18
100
AcDbEntity
  8
0
 62
     7
100
AcDbLine
 10
61.70930367
 20
47.18825419
 30
0.0
 11
61.70930367
 21
46.82904574000001
 31
0.0
  0
LINE
  5
39A
330
18
100
AcDbEntity
  8
0
 62
     7
100
AcDbLine
 10
54.48405485
 20
50.53099459000001
 30
0.0
 11
58.42579445
 21
50.53099459000001
 31
0.0
  0
LINE
  5
39B
330
18
100
AcDbEntity
  8
0
 62
     7
100
AcDbLine
 10
53.9427682
 20
51.49087574000001
 30
0.0
 11
58.96708111
 21
51.49087574000001
 31
0.0
  0
LINE
  5
39C
330
18
100
AcDbEntity
  8
0
 62
     7
100
AcDbLine
 10
53.9427682
 20
50.88566353
 30
0.0
 11
58.96708111
 21
50.88566353
 31
0.0
  0
LINE
  5
39D
330
18
100
AcDbEntity
  8
0
 62
     7
100
AcDbLine
 10
52.98942285999999
 20
51.63990903000001
 30
0.0
 11
59.92042645
 21
51.63990903000001
 31
0.0
  0
LINE
  5
39E
330
18
100
AcDbEntity
  8
0
 62
     7
100
AcDbLine
 10
52.98942285999999
 20
50.73663023
 30
0.0
 11
59.92042645
 21
50.73663023
 31
0.0
  0
CIRCLE
  5
3A0
330
18
100
AcDbEntity
  8
0
 62
     7
100
AcDbCircle
 10
53.34157456999999
 20
51.18826963
 30
0.0
 40
0.27669086
  0
LINE
  5
3A1
330
18
100
AcDbEntity
  8
0
 62
     7
100
AcDbLine
 10
52.98942285999999
 20
51.63990903000001
 30
0.0
 11
52.98942285999999
 21
50.73663023
 31
0.0
  0
ARC
  5
3A2
330
18
100
AcDbEntity
  8
0
 62
     7
100
AcDbCircle
 10
53.82534678999999
 20
51.05548309
 30
0.0
 40
0.1194177
100
AcDbArc
 50
180.0
 51
250.0
  0
LINE
  5
3A3
330
18
100
AcDbEntity
  8
0
 62
     7
100
AcDbLine
 10
53.70592908999999
 20
51.32105617
 30
0.0
 11
53.70592908999999
 21
51.05548309
 31
0.0
  0
LINE
  5
3A4
330
18
100
AcDbEntity
  8
0
 62
     7
100
AcDbLine
 10
53.78450353
 20
50.94326716000001
 30
0.0
 11
53.9427682
 21
50.88566353
 31
0.0
  0
ARC
  5
3A5
330
18
100
AcDbEntity
  8
0
 62
     7
100
AcDbCircle
 10
53.82534678999999
 20
51.32105617
 30
0.0
 40
0.1194177
100
AcDbArc
 50
110.0
 51
180.0
  0
LINE
  5
3A6
330
18
100
AcDbEntity
  8
0
 62
     7
100
AcDbLine
 10
53.78450353
 20
51.43327211
 30
0.0
 11
53.9427682
 21
51.49087574000001
 31
0.0
  0
LINE
  5
3A7
330
18
100
AcDbEntity
  8
0
 62
     7
100
AcDbLine
 10
55.02286754
 20
50.23292799
 30
0.0
 11
55.02286754
 21
49.0377956
 31
0.0
  0
ARC
  5
3A8
330
18
100
AcDbEntity
  8
0
 62
     7
100
AcDbCircle
 10
54.85844962
 20
48.54469388
 30
0.0
 40
0.23883541
100
AcDbArc
 50
295.05250462
 51
17.16429968
  0
ARC
  5
3A9
330
18
100
AcDbEntity
  8
0
 62
     7
100
AcDbCircle
 10
54.48405485
 20
50.65041229000001
 30
0.0
 40
0.1194177
100
AcDbArc
 50
180.0
 51
270.0
  0
ARC
  5
3AA
330
18
100
AcDbEntity
  8
0
 62
     7
100
AcDbCircle
 10
54.72480095
 20
50.23292799
 30
0.0
 40
0.29806659
100
AcDbArc
 50
0.0
 51
90.0
  0
LINE
  5
3AB
330
18
100
AcDbEntity
  8
0
 62
     7
100
AcDbLine
 10
54.36463715
 20
50.73663023
 30
0.0
 11
54.36463715
 21
50.65041229000001
 31
0.0
  0
CIRCLE
  5
3AC
330
18
100
AcDbEntity
  8
0
 62
     7
100
AcDbCircle
 10
59.56827474
 20
51.18826963
 30
0.0
 40
0.27669086
  0
LINE
  5
3AD
330
18
100
AcDbEntity
  8
0
 62
     7
100
AcDbLine
 10
57.88698177
 20
50.23292799
 30
0.0
 11
57.88698177
 21
49.0377956
 31
0.0
  0
ARC
  5
3AE
330
18
100
AcDbEntity
  8
0
 62
     7
100
AcDbCircle
 10
58.05139968
 20
48.54469388
 30
0.0
 40
0.23883541
100
AcDbArc
 50
162.83570032
 51
244.94749538
  0
ARC
  5
3AF
330
18
100
AcDbEntity
  8
0
 62
     7
100
AcDbCircle
 10
58.18504836
 20
50.23292799
 30
0.0
 40
0.29806659
100
AcDbArc
 50
90.0
 51
180.0
  0
ARC
  5
3B0
330
18
100
AcDbEntity
  8
0
 62
     7
100
AcDbCircle
 10
58.42579445
 20
50.65041229000001
 30
0.0
 40
0.1194177
100
AcDbArc
 50
270.0
 51
0.0
  0
LINE
  5
3B1
330
18
100
AcDbEntity
  8
0
 62
     7
100
AcDbLine
 10
58.54521216
 20
50.73663023
 30
0.0
 11
58.54521216
 21
50.65041229000001
 31
0.0
  0
LINE
  5
3B2
330
18
100
AcDbEntity
  8
0
 62
     7
100
AcDbLine
 10
59.12534577
 20
51.43327211
 30
0.0
 11
58.96708111
 21
51.49087574000001
 31
0.0
  0
ARC
  5
3B3
330
18
100
AcDbEntity
  8
0
 62
     7
100
AcDbCircle
 10
59.08450251
 20
51.32105617
 30
0.0
 40
0.1194177
100
AcDbArc
 50
0.0
 51
70.0
  0
LINE
  5
3B4
330
18
100
AcDbEntity
  8
0
 62
     7
100
AcDbLine
 10
59.12534577
 20
50.94326716000001
 30
0.0
 11
58.96708111
 21
50.88566353
 31
0.0
  0
LINE
  5
3B5
330
18
100
AcDbEntity
  8
0
 62
     7
100
AcDbLine
 10
59.20392022
 20
51.32105617
 30
0.0
 11
59.20392022
 21
51.05548309
 31
0.0
  0
ARC
  5
3B6
330
18
100
AcDbEntity
  8
0
 62
     7
100
AcDbCircle
 10
59.08450251
 20
51.05548309
 30
0.0
 40
0.1194177
100
AcDbArc
 50
290.0
 51
0.0
  0
LINE
  5
3B7
330
18
100
AcDbEntity
  8
0
 62
     7
100
AcDbLine
 10
59.92042645
 20
51.63990903000001
 30
0.0
 11
59.92042645
 21
50.73663023
 31
0.0
  0
LINE
  5
3B8
330
18
100
AcDbEntity
  8
0
  6
ByBlock
 62
     7
100
AcDbLine
 10
67.45724868
 20
47.45766053
 30
0.0
 11
67.45724868
 21
51.92579338
 31
0.0
  0
SOLID
  5
3B9
330
18
100
AcDbEntity
  8
0
  6
ByBlock
 62
     7
100
AcDbTrace
 10
67.34260768
 20
47.45766053
 30
0.0
 11
67.57188967000001
 21
47.45766053
 31
0.0
 12
67.45724868
 22
46.76981454999999
 32
0.0
 13
67.45724868
 23
46.76981454999999
 33
0.0
  0
POINT
  5
3BA
330
18
100
AcDbEntity
  8
0
  6
ByBlock
 62
     7
100
AcDbPoint
 10
64.44597981
 20
44.53079509000001
 30
0.0
  0
SOLID
  5
3BB
330
18
100
AcDbEntity
  8
0
  6
ByBlock
 62
     7
100
AcDbTrace
 10
63.75813383
 20
44.64543608
 30
0.0
 11
63.75813383
 21
44.41615409
 31
0.0
 12
64.44597981
 22
44.53079509000001
 32
0.0
 13
64.44597981
 23
44.53079509000001
 33
0.0
  0
TEXT
  5
3BC
330
18
100
AcDbEntity
  8
0
  6
ByBlock
 62
     7
100
AcDbText
 10
67.09686772761905
 20
52.26963936
 30
0.0
 40
0.6879999999999999
  1
H
  7
ROMANS
 72
     1
 11
67.45724868
 21
52.61363936000001
 31
0.0
100
AcDbText
 73
     2
  0
LINE
  5
3BD
330
18
100
AcDbEntity
  8
0
  6
ByBlock
 62
     7
100
AcDbLine
 10
57.46949747
 20
58.45746416
 30
0.0
 11
68.14509466
 21
58.45746416
 31
0.0
  0
ARC
  5
3BE
330
18
100
AcDbEntity
  8
0
 62
     7
100
AcDbCircle
 10
56.45492465
 20
61.17445578
 30
0.0
 40
6.63387275
100
AcDbArc
 50
2.06323205
 51
69.45447604
  0
ARC
  5
3BF
330
18
100
AcDbEntity
  8
0
 62
     7
100
AcDbCircle
 10
56.45492465
 20
61.17445578
 30
0.0
 40
7.162361609999999
100
AcDbArc
 50
1.910933710000001
 51
71.03104104999999
  0
ARC
  5
3C0
330
18
100
AcDbEntity
  8
0
 62
     7
100
AcDbCircle
 10
60.33647773
 20
66.03563650000001
 30
0.0
 40
6.20972065
100
AcDbArc
 50
180.0
 51
206.26167374
  0
ARC
  5
3C1
330
18
100
AcDbEntity
  8
0
 62
     7
100
AcDbCircle
 10
52.57337157
 20
66.03563650000001
 30
0.0
 40
6.20972065
100
AcDbArc
 50
333.73832626
 51
0.0
  0
LINE
  5
3C2
330
18
100
AcDbEntity
  8
0
  6
HIDDEN
 62
     7
100
AcDbLine
 10
52.27530498
 20
61.89096201
 30
0.0
 11
52.27530498
 21
64.1598984
 31
0.0
  0
LINE
  5
3C3
330
18
100
AcDbEntity
  8
0
  6
HIDDEN
 62
     7
100
AcDbLine
 10
54.36559249
 20
64.1598984
 30
0.0
 11
54.36559249
 21
58.18901316
 31
0.0
  0
ARC
  5
3C4
330
18
100
AcDbEntity
  8
0
  6
HIDDEN
 62
     7
100
AcDbCircle
 10
55.6782319
 20
61.17445578
 30
0.0
 40
2.98544262
100
AcDbArc
 50
301.3322515
 51
65.51640928000001
  0
LINE
  5
3C5
330
18
100
AcDbEntity
  8
0
  6
HIDDEN
 62
     7
100
AcDbLine
 10
54.36559249
 20
58.45746416
 30
0.0
 11
57.23066206
 21
58.45746416
 31
0.0
  0
LINE
  5
3C6
330
18
100
AcDbEntity
  8
0
  6
HIDDEN
 62
     7
100
AcDbLine
 10
55.90273719
 20
58.81571728
 30
0.0
 11
57.00711212
 21
58.81571728
 31
0.0
  0
SOLID
  5
3C7
330
18
100
AcDbEntity
  8
0
 62
     7
100
AcDbTrace
 10
57.05102770999999
 20
59.29932817
 30
0.0
 11
56.87406988
 21
59.39385336
 31
0.0
 12
56.67897323
 22
58.81571728
 32
0.0
 13
56.67897323
 23
58.81571728
 33
0.0
  0
ARC
  5
3C8
330
18
100
AcDbEntity
  8
0
 62
     7
100
AcDbCircle
 10
50.48403941
 20
61.17445578
 30
0.0
 40
4.776708189999999
100
AcDbArc
 50
333.73832626
 51
26.26167374
  0
LINE
  5
3C9
330
18
100
AcDbEntity
  8
0
  6
HIDDEN
 62
     7
100
AcDbLine
 10
52.27530498
 20
58.18901316
 30
0.0
 11
52.27530498
 21
59.64224001
 31
0.0
  0
ARC
  5
3CA
330
18
100
AcDbEntity
  8
0
 62
     7
100
AcDbCircle
 10
60.33647773
 20
56.31327507
 30
0.0
 40
6.20972065
100
AcDbArc
 50
153.73832626
 51
180.0
  0
LINE
  5
3CB
330
18
100
AcDbEntity
  8
0
  6
HIDDEN
 62
     7
100
AcDbLine
 10
52.27530498
 20
58.18901316
 30
0.0
 11
54.36559249
 21
58.18901316
 31
0.0
  0
LINE
  5
3CC
330
18
100
AcDbEntity
  8
0
  6
HIDDEN
 62
     7
100
AcDbLine
 10
55.90273719
 20
58.81571728
 30
0.0
 11
55.90273719
 21
58.45746416
 31
0.0
  0
ARC
  5
3CD
330
18
100
AcDbEntity
  8
0
  6
HIDDEN
 62
     7
100
AcDbCircle
 10
52.09570076
 20
59.64224001
 30
0.0
 40
0.17960423
100
AcDbArc
 50
0.0
 51
74.88659832
  0
ARC
  5
3CE
330
18
100
AcDbEntity
  8
0
  6
HIDDEN
 62
     7
100
AcDbCircle
 10
52.09570076
 20
61.89096201
 30
0.0
 40
0.17960423
100
AcDbArc
 50
270.0
 51
0.0
  0
ARC
  5
3CF
330
18
100
AcDbEntity
  8
0
 62
     7
100
AcDbCircle
 10
62.42580989999999
 20
61.17445578
 30
0.0
 40
4.776708189999999
100
AcDbArc
 50
153.73832626
 51
206.26167374
  0
ARC
  5
3D0
330
18
100
AcDbEntity
  8
0
 62
     7
100
AcDbCircle
 10
52.57337157
 20
56.31327507
 30
0.0
 40
6.20972065
100
AcDbArc
 50
0.0
 51
26.26167374
  0
POINT
  5
3D1
330
18
100
AcDbEntity
  8
0
  6
ByBlock
 62
     7
100
AcDbPoint
 10
57.23066206
 20
58.45746416
 30
0.0
  0
LINE
  5
3D2
330
18
100
AcDbEntity
  8
0
  6
HIDDEN
 62
     7
100
AcDbLine
 10
57.23066206
 20
58.62439142
 30
0.0
 11
57.23066206
 21
58.45746416
 31
0.0
  0
LINE
  5
3D3
330
18
100
AcDbEntity
  8
0
  6
HIDDEN
 62
     7
100
AcDbLine
 10
57.00711212
 20
58.81571728
 30
0.0
 11
57.00711212
 21
58.45746416
 31
0.0
  0
LINE
  5
3D4
330
18
100
AcDbEntity
  8
0
  6
HIDDEN
 62
     7
100
AcDbLine
 10
54.36559249
 20
63.8914474
 30
0.0
 11
56.9154967
 21
63.8914474
 31
0.0
  0
LINE
  5
3D5
330
18
100
AcDbEntity
  8
0
 62
     7
100
AcDbLine
 10
52.98942285999999
 20
70.23945539999999
 30
0.0
 11
59.92042645
 21
70.23945539999999
 31
0.0
  0
LINE
  5
3D6
330
18
100
AcDbEntity
  8
0
 62
     7
100
AcDbLine
 10
52.98942285999999
 20
69.3361766
 30
0.0
 11
59.92042645
 21
69.3361766
 31
0.0
  0
LINE
  5
3D7
330
18
100
AcDbEntity
  8
0
 62
     7
100
AcDbLine
 10
53.9427682
 20
70.0904221
 30
0.0
 11
58.96708111
 21
70.0904221
 31
0.0
  0
LINE
  5
3D8
330
18
100
AcDbEntity
  8
0
 62
     7
100
AcDbLine
 10
53.9427682
 20
69.48520989000001
 30
0.0
 11
58.96708111
 21
69.48520989000001
 31
0.0
  0
LINE
  5
3D9
330
18
100
AcDbEntity
  8
0
 62
     7
100
AcDbLine
 10
54.12675708
 20
69.3361766
 30
0.0
 11
54.12675708
 21
66.03563650000001
 31
0.0
  0
LINE
  5
3DA
330
18
100
AcDbEntity
  8
0
  6
HIDDEN
 62
     7
100
AcDbLine
 10
52.27530498
 20
64.1598984
 30
0.0
 11
54.36559249
 21
64.1598984
 31
0.0
  0
LINE
  5
3DB
330
18
100
AcDbEntity
  8
0
 62
     7
100
AcDbLine
 10
53.78450353
 20
69.54281352000001
 30
0.0
 11
53.9427682
 21
69.48520989000001
 31
0.0
  0
ARC
  5
3DC
330
18
100
AcDbEntity
  8
0
 62
     7
100
AcDbCircle
 10
53.82534678999999
 20
69.65502946
 30
0.0
 40
0.1194177
100
AcDbArc
 50
180.0
 51
250.0
  0
LINE
  5
3DD
330
18
100
AcDbEntity
  8
0
 62
     7
100
AcDbLine
 10
53.78450353
 20
70.03281847000001
 30
0.0
 11
53.9427682
 21
70.0904221
 31
0.0
  0
LINE
  5
3DE
330
18
100
AcDbEntity
  8
0
 62
     7
100
AcDbLine
 10
53.70592908999999
 20
69.65502946
 30
0.0
 11
53.70592908999999
 21
69.92060254
 31
0.0
  0
ARC
  5
3DF
330
18
100
AcDbEntity
  8
0
 62
     7
100
AcDbCircle
 10
53.82534678999999
 20
69.92060254
 30
0.0
 40
0.1194177
100
AcDbArc
 50
110.0
 51
180.0
  0
LINE
  5
3E0
330
18
100
AcDbEntity
  8
0
 62
     7
100
AcDbLine
 10
52.98942285999999
 20
69.3361766
 30
0.0
 11
52.98942285999999
 21
70.23945539999999
 31
0.0
  0
CIRCLE
  5
3E1
330
18
100
AcDbEntity
  8
0
 62
     7
100
AcDbCircle
 10
53.34157456999999
 20
69.78781600000001
 30
0.0
 40
0.27669086
  0
LINE
  5
3E2
330
18
100
AcDbEntity
  8
0
 62
     7
100
AcDbLine
 10
58.78309223
 20
69.3361766
 30
0.0
 11
58.78309223
 21
66.03563650000001
 31
0.0
  0
CIRCLE
  5
3E3
330
18
100
AcDbEntity
  8
0
 62
     7
100
AcDbCircle
 10
59.56827474
 20
69.78781600000001
 30
0.0
 40
0.27669086
  0
ARC
  5
3E4
330
18
100
AcDbEntity
  8
0
 62
     7
100
AcDbCircle
 10
59.08450251
 20
69.92060254
 30
0.0
 40
0.1194177
100
AcDbArc
 50
0.0
 51
70.0
  0
LINE
  5
3E5
330
18
100
AcDbEntity
  8
0
 62
     7
100
AcDbLine
 10
59.20392022
 20
69.65502946
 30
0.0
 11
59.20392022
 21
69.92060254
 31
0.0
  0
LINE
  5
3E6
330
18
100
AcDbEntity
  8
0
 62
     7
100
AcDbLine
 10
59.12534577
 20
70.03281847000001
 30
0.0
 11
58.96708111
 21
70.0904221
 31
0.0
  0
ARC
  5
3E7
330
18
100
AcDbEntity
  8
0
 62
     7
100
AcDbCircle
 10
59.08450251
 20
69.65502946
 30
0.0
 40
0.1194177
100
AcDbArc
 50
290.0
 51
0.0
  0
LINE
  5
3E8
330
18
100
AcDbEntity
  8
0
 62
     7
100
AcDbLine
 10
59.12534577
 20
69.54281352000001
 30
0.0
 11
58.96708111
 21
69.48520989000001
 31
0.0
  0
LINE
  5
3E9
330
18
100
AcDbEntity
  8
0
 62
     7
100
AcDbLine
 10
59.92042645
 20
69.3361766
 30
0.0
 11
59.92042645
 21
70.23945539999999
 31
0.0
  0
SOLID
  5
3EA
330
18
100
AcDbEntity
  8
0
  6
ByBlock
 62
     7
100
AcDbTrace
 10
67.34260768
 20
57.76961818
 30
0.0
 11
67.57188967000001
 21
57.76961818
 31
0.0
 12
67.45724868
 22
58.45746416
 32
0.0
 13
67.45724868
 23
58.45746416
 33
0.0
  0
POINT
  5
3EB
330
18
100
AcDbEntity
  8
0
  6
ByBlock
 62
     7
100
AcDbPoint
 10
67.45724868
 20
58.45746416
 30
0.0
  0
ARC
  5
3EC
330
18
100
AcDbEntity
  8
0
 62
     7
100
AcDbCircle
 10
56.45492465
 20
61.17445578
 30
0.0
 40
6.995966819999999
100
AcDbArc
 50
358.01099233
 51
1.989007670000001
  0
LINE
  5
3ED
330
18
100
AcDbEntity
  8
0
 62
     7
100
AcDbLine
 10
63.81879802
 20
61.41329119
 30
0.0
 11
63.81879802
 21
60.93562037
 31
0.0
  0
LINE
  5
3EE
330
18
100
AcDbEntity
  8
0
 62
     7
100
AcDbLine
 10
64.23723766000001
 20
61.41329119
 30
0.0
 11
64.23723766000001
 21
60.93562037
 31
0.0
  0
LINE
  5
3EF
330
18
100
AcDbEntity
  8
0
 62
     7
100
AcDbLine
 10
63.61330306
 20
60.93562037
 30
0.0
 11
63.08449669
 21
60.93562037
 31
0.0
  0
POINT
  5
3F0
330
18
100
AcDbEntity
  8
0
  6
ByBlock
 62
     7
100
AcDbPoint
 10
64.44597981
 20
60.03950992
 30
0.0
  0
LINE
  5
3F1
330
18
100
AcDbEntity
  8
0
 62
     7
100
AcDbLine
 10
64.38674863
 20
60.93562037
 30
0.0
 11
63.66928706
 21
60.93562037
 31
0.0
  0
LINE
  5
3F2
330
18
100
AcDbEntity
  8
0
 62
     7
100
AcDbLine
 10
64.38674863
 20
59.98027873
 30
0.0
 11
64.38674863
 21
59.74144332
 31
0.0
  0
LINE
  5
3F3
330
18
100
AcDbEntity
  8
0
 62
     7
100
AcDbLine
 10
63.66928706
 20
59.98027873
 30
0.0
 11
63.66928706
 21
59.74144332
 31
0.0
  0
LINE
  5
3F4
330
18
100
AcDbEntity
  8
0
 62
     7
100
AcDbLine
 10
64.38674863
 20
59.74144332
 30
0.0
 11
63.66928706
 21
59.74144332
 31
0.0
  0
LINE
  5
3F5
330
18
100
AcDbEntity
  8
0
 62
     7
100
AcDbLine
 10
64.38674863
 20
59.98027873
 30
0.0
 11
63.66928706
 21
59.98027873
 31
0.0
  0
LINE
  5
3F6
330
18
100
AcDbEntity
  8
0
 62
     7
100
AcDbLine
 10
63.61005587
 20
60.03950992
 30
0.0
 11
63.61005587
 21
60.87638919
 31
0.0
  0
LINE
  5
3F7
330
18
100
AcDbEntity
  8
0
 62
     7
100
AcDbLine
 10
64.44597981
 20
60.87638919
 30
0.0
 11
64.44597981
 21
60.03950992
 31
0.0
  0
LINE
  5
3F8
330
18
100
AcDbEntity
  8
0
 62
     7
100
AcDbLine
 10
63.66928706
 20
60.93562037
 30
0.0
 11
63.61005587
 21
60.87638919
 31
0.0
  0
LINE
  5
3F9
330
18
100
AcDbEntity
  8
0
 62
     7
100
AcDbLine
 10
63.61005587
 20
60.03950992
 30
0.0
 11
63.66928706
 21
59.98027873
 31
0.0
  0
LINE
  5
3FA
330
18
100
AcDbEntity
  8
0
 62
     7
100
AcDbLine
 10
64.38674863
 20
59.98027873
 30
0.0
 11
64.44597981
 21
60.03950992
 31
0.0
  0
LINE
  5
3FB
330
18
100
AcDbEntity
  8
0
 62
     7
100
AcDbLine
 10
64.44597981
 20
60.87638919
 30
0.0
 11
64.38674863
 21
60.93562037
 31
0.0
  0
LINE
  5
3FC
330
18
100
AcDbEntity
  8
0
 62
     7
100
AcDbLine
 10
63.61330306
 20
61.41329119
 30
0.0
 11
63.08449669
 21
61.41329119
 31
0.0
  0
LINE
  5
3FD
330
18
100
AcDbEntity
  8
0
 62
     7
100
AcDbLine
 10
64.38674863
 20
61.41329119
 30
0.0
 11
63.66928706
 21
61.41329119
 31
0.0
  0
LINE
  5
3FE
330
18
100
AcDbEntity
  8
0
 62
     7
100
AcDbLine
 10
64.23723766000001
 20
62.96572136
 30
0.0
 11
63.81879802
 21
62.96572136
 31
0.0
  0
LINE
  5
3FF
330
18
100
AcDbEntity
  8
0
 62
     7
100
AcDbLine
 10
64.38674863
 20
62.60746824
 30
0.0
 11
64.38674863
 21
62.36863283
 31
0.0
  0
LINE
  5
400
330
18
100
AcDbEntity
  8
0
 62
     7
100
AcDbLine
 10
63.66928706
 20
62.60746824
 30
0.0
 11
63.66928706
 21
62.36863283
 31
0.0
  0
LINE
  5
401
330
18
100
AcDbEntity
  8
0
 62
     7
100
AcDbLine
 10
64.38674863
 20
62.60746824
 30
0.0
 11
63.66928706
 21
62.60746824
 31
0.0
  0
LINE
  5
402
330
18
100
AcDbEntity
  8
0
 62
     7
100
AcDbLine
 10
64.23723766000001
 20
62.96572136
 30
0.0
 11
64.23723766000001
 21
62.60746824
 31
0.0
  0
LINE
  5
403
330
18
100
AcDbEntity
  8
0
 62
     7
100
AcDbLine
 10
63.81879802
 20
62.96572136
 30
0.0
 11
63.81879802
 21
62.60746824
 31
0.0
  0
LINE
  5
404
330
18
100
AcDbEntity
  8
0
 62
     7
100
AcDbLine
 10
64.44597981
 20
61.47252237
 30
0.0
 11
64.38674863
 21
61.41329119
 31
0.0
  0
LINE
  5
405
330
18
100
AcDbEntity
  8
0
 62
     7
100
AcDbLine
 10
64.38674863
 20
62.36863283
 30
0.0
 11
64.44597981
 21
62.30940165
 31
0.0
  0
LINE
  5
406
330
18
100
AcDbEntity
  8
0
 62
     7
100
AcDbLine
 10
63.61005587
 20
62.30940165
 30
0.0
 11
63.66928706
 21
62.36863283
 31
0.0
  0
LINE
  5
407
330
18
100
AcDbEntity
  8
0
 62
     7
100
AcDbLine
 10
63.66928706
 20
61.41329119
 30
0.0
 11
63.61005587
 21
61.47252237
 31
0.0
  0
LINE
  5
408
330
18
100
AcDbEntity
  8
0
 62
     7
100
AcDbLine
 10
64.44597981
 20
61.47252237
 30
0.0
 11
64.44597981
 21
62.30940165
 31
0.0
  0
LINE
  5
409
330
18
100
AcDbEntity
  8
0
 62
     7
100
AcDbLine
 10
63.61005587
 20
62.30940165
 30
0.0
 11
63.61005587
 21
61.47252237
 31
0.0
  0
LINE
  5
40A
330
18
100
AcDbEntity
  8
0
 62
     7
100
AcDbLine
 10
64.38674863
 20
62.36863283
 30
0.0
 11
63.66928706
 21
62.36863283
 31
0.0
  0
TEXT
  5
40B
330
18
100
AcDbEntity
  8
0
 62
     7
100
AcDbText
 10
64.54309865651616
 20
69.65218101734774
 30
0.0
 40
0.6879999999999999
  1
FNPT AIR EXHAUST
  7
ROMANS
100
AcDbText
  0
LINE
  5
40C
330
18
100
AcDbEntity
  8
0
  6
ByBlock
 62
     7
100
AcDbLine
 10
89.29892452
 20
48.10499147
 30
0.0
 11
86.24458606999999
 21
48.10499147
 31
0.0
  0
TEXT
  5
40D
330
18
100
AcDbEntity
  8
0
  6
ByBlock
 62
     7
100
AcDbText
 10
86.60481300238094
 20
48.89593733999999
 30
0.0
 40
0.6879999999999999
  1
S
  7
ROMANS
 72
     4
 11
86.93243204999999
 21
49.23993733999999
 31
0.0
100
AcDbText
  0
LINE
  5
40E
330
18
100
AcDbEntity
  8
0
  6
ByBlock
 62
     7
100
AcDbLine
 10
86.93243204999999
 20
47.41714549
 30
0.0
 11
86.93243204999999
 21
46.72929950999999
 31
0.0
  0
SOLID
  5
40F
330
18
100
AcDbEntity
  8
0
  6
ByBlock
 62
     7
100
AcDbTrace
 10
86.81779105
 20
47.41714549
 30
0.0
 11
87.04707304000001
 21
47.41714549
 31
0.0
 12
86.93243204999999
 22
48.10499147
 32
0.0
 13
86.93243204999999
 23
48.10499147
 33
0.0
  0
LINE
  5
410
330
18
100
AcDbEntity
  8
0
  6
ByBlock
 62
     7
100
AcDbLine
 10
86.93243204999999
 20
51.06272918
 30
0.0
 11
86.93243204999999
 21
51.75057515999999
 31
0.0
  0
POINT
  5
411
330
18
100
AcDbEntity
  8
0
  6
ByBlock
 62
     7
100
AcDbPoint
 10
86.93243204999999
 20
50.37488320000001
 30
0.0
  0
SOLID
  5
412
330
18
100
AcDbEntity
  8
0
  6
ByBlock
 62
     7
100
AcDbTrace
 10
86.81779105
 20
51.06272918
 30
0.0
 11
87.04707304000001
 21
51.06272918
 31
0.0
 12
86.93243204999999
 22
50.37488320000001
 32
0.0
 13
86.93243204999999
 23
50.37488320000001
 33
0.0
  0
LINE
  5
413
330
18
100
AcDbEntity
  8
0
 62
     7
100
AcDbLine
 10
89.53775993
 20
50.49430091
 30
0.0
 11
89.53775993
 21
48.10499147
 31
0.0
  0
LINE
  5
414
330
18
100
AcDbEntity
  8
0
 62
     7
100
AcDbLine
 10
90.49310156999998
 20
50.49430091
 30
0.0
 11
90.49310156999998
 21
48.46324458
 31
0.0
  0
LINE
  5
415
330
18
100
AcDbEntity
  8
0
 62
     7
100
AcDbLine
 10
90.73193697
 20
50.49430091
 30
0.0
 11
90.73193697
 21
48.46324458
 31
0.0
  0
LINE
  5
416
330
18
100
AcDbEntity
  8
0
 62
     7
100
AcDbLine
 10
91.56786090999998
 20
50.49430091
 30
0.0
 11
91.56786090999998
 21
48.46324458
 31
0.0
  0
LINE
  5
417
330
18
100
AcDbEntity
  8
0
 62
     7
100
AcDbLine
 10
91.80669632
 20
50.49430091
 30
0.0
 11
91.80669632
 21
48.46324458
 31
0.0
  0
LINE
  5
418
330
18
100
AcDbEntity
  8
0
 62
     7
100
AcDbLine
 10
92.64262024999998
 20
50.49430091
 30
0.0
 11
92.64262024999998
 21
48.46324458
 31
0.0
  0
LINE
  5
419
330
18
100
AcDbEntity
  8
0
 62
     7
100
AcDbLine
 10
92.88145566
 20
50.49430091
 30
0.0
 11
92.88145566
 21
48.46324458
 31
0.0
  0
LINE
  5
41A
330
18
100
AcDbEntity
  8
0
 62
     7
100
AcDbLine
 10
93.7173796
 20
50.49430091
 30
0.0
 11
93.7173796
 21
48.46324458
 31
0.0
  0
POINT
  5
41B
330
18
100
AcDbEntity
  8
0
  6
ByBlock
 62
     7
100
AcDbPoint
 10
89.53775993
 20
48.10499147
 30
0.0
  0
LINE
  5
41C
330
18
100
AcDbEntity
  8
0
 62
     7
100
AcDbLine
 10
90.73193697
 20
48.46324458
 30
0.0
 11
90.49310156999998
 21
48.46324458
 31
0.0
  0
LINE
  5
41D
330
18
100
AcDbEntity
  8
0
 62
     7
100
AcDbLine
 10
91.80669632
 20
48.46324458
 30
0.0
 11
91.56786090999998
 21
48.46324458
 31
0.0
  0
LINE
  5
41E
330
18
100
AcDbEntity
  8
0
 62
     7
100
AcDbLine
 10
92.88145566
 20
48.46324458
 30
0.0
 11
92.64262024999998
 21
48.46324458
 31
0.0
  0
ARC
  5
41F
330
18
100
AcDbEntity
  8
0
 62
     7
100
AcDbCircle
 10
93.65719307
 20
51.92731337
 30
0.0
 40
2.98544262
100
AcDbArc
 50
250.13287369
 51
254.93943147
  0
LINE
  5
420
330
18
100
AcDbEntity
  8
0
 62
     7
100
AcDbLine
 10
93.32530441999999
 20
51.80789566
 30
0.0
 11
89.8950577
 21
51.80789566
 31
0.0
  0
ARC
  5
421
330
18
100
AcDbEntity
  8
0
 62
     7
100
AcDbCircle
 10
93.65719307
 20
51.92731337
 30
0.0
 40
2.98544262
100
AcDbArc
 50
186.37937021
 51
203.57817848
  0
LINE
  5
422
330
18
100
AcDbEntity
  8
0
 62
     7
100
AcDbLine
 10
89.53775993
 20
50.49430091
 30
0.0
 11
89.53775993
 21
50.73313632
 31
0.0
  0
LINE
  5
423
330
18
100
AcDbEntity
  8
0
 62
     7
100
AcDbLine
 10
90.19407963
 20
51.80789566
 30
0.0
 11
89.8950577
 21
51.80789566
 31
0.0
  0
ARC
  5
424
330
18
100
AcDbEntity
  8
0
 62
     7
100
AcDbCircle
 10
89.8950577
 20
51.92731337
 30
0.0
 40
0.1194177
100
AcDbArc
 50
180.0
 51
270.0
  0
LINE
  5
425
330
18
100
AcDbEntity
  8
0
 62
     7
100
AcDbLine
 10
89.77563999
 20
52.12661645
 30
0.0
 11
89.77563999
 21
51.92731337
 31
0.0
  0
LINE
  5
426
330
18
100
AcDbEntity
  8
0
 62
     7
100
AcDbLine
 10
89.20768939
 20
52.33333356
 30
0.0
 11
89.77563999
 21
52.12661645
 31
0.0
  0
LINE
  5
427
330
18
100
AcDbEntity
  8
0
 62
     7
100
AcDbLine
 10
89.20768939
 20
52.52440189
 30
0.0
 11
89.20768939
 21
52.33333356
 31
0.0
  0
ARC
  5
428
330
18
100
AcDbEntity
  8
0
 62
     7
100
AcDbCircle
 10
90.45287979999999
 20
51.56906025
 30
0.0
 40
0.23883541
100
AcDbArc
 50
6.37937021
 51
90.0
  0
ARC
  5
429
330
18
100
AcDbEntity
  8
0
 62
     7
100
AcDbCircle
 10
93.65719307
 20
51.92731337
 30
0.0
 40
2.98544262
100
AcDbArc
 50
225.58583141
 51
231.69554863
  0
POINT
  5
42A
330
18
100
AcDbEntity
  8
0
  6
ByBlock
 62
     7
100
AcDbPoint
 10
91.8659275
 20
52.52440189
 30
0.0
  0
ARC
  5
42B
330
18
100
AcDbEntity
  8
0
 62
     7
100
AcDbCircle
 10
93.32530441999999
 20
52.28556648
 30
0.0
 40
0.47767082
100
AcDbArc
 50
270.0
 51
315.53988625
  0
LINE
  5
42C
330
18
100
AcDbEntity
  8
0
  6
ByBlock
 62
     7
100
AcDbLine
 10
91.00845741
 20
67.59180079999999
 30
0.0
 11
86.26657053
 21
67.59180079999999
 31
0.0
  0
SOLID
  5
42D
330
18
100
AcDbEntity
  8
0
  6
ByBlock
 62
     7
100
AcDbTrace
 10
86.83977550999999
 20
66.90395481999999
 30
0.0
 11
87.0690575
 21
66.90395481999999
 31
0.0
 12
86.95441651000001
 22
67.59180079999999
 32
0.0
 13
86.95441651000001
 23
67.59180079999999
 33
0.0
  0
LINE
  5
42E
330
18
100
AcDbEntity
  8
0
  6
ByBlock
 62
     7
100
AcDbLine
 10
86.95441651000001
 20
66.90395481999999
 30
0.0
 11
86.95441651000001
 21
66.21610884
 31
0.0
  0
TEXT
  5
42F
330
18
100
AcDbEntity
  8
0
  6
ByBlock
 62
     7
100
AcDbText
 10
86.59403555761905
 20
68.59101115
 30
0.0
 40
0.6879999999999999
  1
R
  7
ROMANS
 72
     1
 11
86.95441651000001
 21
68.93501114999999
 31
0.0
100
AcDbText
 73
     2
  0
POINT
  5
430
330
18
100
AcDbEntity
  8
0
  6
ByBlock
 62
     7
100
AcDbPoint
 10
86.95441651000001
 20
70.27822149000001
 30
0.0
  0
SOLID
  5
431
330
18
100
AcDbEntity
  8
0
  6
ByBlock
 62
     7
100
AcDbTrace
 10
86.83977550999999
 20
70.96606747
 30
0.0
 11
87.0690575
 21
70.96606747
 31
0.0
 12
86.95441651000001
 22
70.27822149000001
 32
0.0
 13
86.95441651000001
 23
70.27822149000001
 33
0.0
  0
ARC
  5
432
330
18
100
AcDbEntity
  8
0
 62
     7
100
AcDbCircle
 10
91.81572108999999
 20
67.65103198
 30
0.0
 40
0.05923118
100
AcDbArc
 50
270.0
 51
0.0
  0
ARC
  5
433
330
18
100
AcDbEntity
  8
0
 62
     7
100
AcDbCircle
 10
92.47108545999999
 20
67.65103198
 30
0.0
 40
0.05923118
100
AcDbArc
 50
180.0
 51
270.0
  0
ARC
  5
434
330
18
100
AcDbEntity
  8
0
 62
     7
100
AcDbCircle
 10
93.03951373
 20
67.65103198
 30
0.0
 40
0.05923118
100
AcDbArc
 50
270.0
 51
0.0
  0
ARC
  5
435
330
18
100
AcDbEntity
  8
0
 62
     7
100
AcDbCircle
 10
91.24729282
 20
67.65103198
 30
0.0
 40
0.05923118
100
AcDbArc
 50
180.0
 51
270.0
  0
LINE
  5
436
330
18
100
AcDbEntity
  8
0
 62
     7
100
AcDbLine
 10
91.24729282
 20
67.59180079999999
 30
0.0
 11
93.03951373
 21
67.59180079999999
 31
0.0
  0
POINT
  5
437
330
18
100
AcDbEntity
  8
0
  6
ByBlock
 62
     7
100
AcDbPoint
 10
91.24729282
 20
67.59180079999999
 30
0.0
  0
LINE
  5
438
330
18
100
AcDbEntity
  8
0
 62
     7
100
AcDbLine
 10
93.23344808999999
 20
71.17433195
 30
0.0
 11
89.29170848
 21
71.17433195
 31
0.0
  0
LINE
  5
439
330
18
100
AcDbEntity
  8
0
 62
     7
100
AcDbLine
 10
91.24729282
 20
67.88986739000001
 30
0.0
 11
93.03951373
 21
67.88986739000001
 31
0.0
  0
ARC
  5
43A
330
18
100
AcDbEntity
  8
0
 62
     7
100
AcDbCircle
 10
92.93442615
 20
70.69666113
 30
0.0
 40
3.045629139999999
100
AcDbArc
 50
180.0
 51
237.95740089
  0
ARC
  5
43B
330
18
100
AcDbEntity
  8
0
 62
     7
100
AcDbCircle
 10
91.26244181
 20
68.00928509999998
 30
0.0
 40
0.1194177
100
AcDbArc
 50
270.0
 51
58.11167889
  0
LINE
  5
43C
330
18
100
AcDbEntity
  8
0
 62
     7
100
AcDbLine
 10
91.24729282
 20
67.88986739000001
 30
0.0
 11
91.26244181
 21
67.88986739000001
 31
0.0
  0
ARC
  5
43D
330
18
100
AcDbEntity
  8
0
 62
     7
100
AcDbCircle
 10
91.24729282
 20
67.83063621
 30
0.0
 40
0.05923118
100
AcDbArc
 50
90.0
 51
180.0
  0
LINE
  5
43E
330
18
100
AcDbEntity
  8
0
 62
     7
100
AcDbLine
 10
91.18806164
 20
67.83063621
 30
0.0
 11
91.18806164
 21
67.65103198
 31
0.0
  0
ARC
  5
43F
330
18
100
AcDbEntity
  8
0
 62
     7
100
AcDbCircle
 10
89.59073041999999
 20
70.87626536000001
 30
0.0
 40
0.29806659
100
AcDbArc
 50
0.0
 51
90.0
  0
ARC
  5
440
330
18
100
AcDbEntity
  8
0
 62
     7
100
AcDbCircle
 10
89.29170848
 20
71.29374965
 30
0.0
 40
0.1194177
100
AcDbArc
 50
180.0
 51
270.0
  0
LINE
  5
441
330
18
100
AcDbEntity
  8
0
 62
     7
100
AcDbLine
 10
89.88879701
 20
70.87626536000001
 30
0.0
 11
89.88879701
 21
70.69666113
 31
0.0
  0
LINE
  5
442
330
18
100
AcDbEntity
  8
0
 62
     7
100
AcDbLine
 10
89.59073041999999
 20
71.17433195
 30
0.0
 11
89.29170848
 21
71.17433195
 31
0.0
  0
LINE
  5
443
330
18
100
AcDbEntity
  8
0
 62
     7
100
AcDbLine
 10
89.17229078
 20
71.43382155000001
 30
0.0
 11
89.17229078
 21
71.29374965
 31
0.0
  0
LINE
  5
444
330
18
100
AcDbEntity
  8
0
 62
     7
100
AcDbLine
 10
91.87495228000001
 20
67.65103198
 30
0.0
 11
91.87495228000001
 21
67.83063621
 31
0.0
  0
LINE
  5
445
330
18
100
AcDbEntity
  8
0
 62
     7
100
AcDbLine
 10
92.41185427999999
 20
67.65103198
 30
0.0
 11
92.41185427999999
 21
67.83063621
 31
0.0
  0
ARC
  5
446
330
18
100
AcDbEntity
  8
0
 62
     7
100
AcDbCircle
 10
91.81572108999999
 20
67.83063621
 30
0.0
 40
0.05923118
100
AcDbArc
 50
0.0
 51
90.0
  0
ARC
  5
447
330
18
100
AcDbEntity
  8
0
 62
     7
100
AcDbCircle
 10
92.47108545999999
 20
67.83063621
 30
0.0
 40
0.05923118
100
AcDbArc
 50
90.0
 51
180.0
  0
LINE
  5
448
330
18
100
AcDbEntity
  8
0
 62
     7
100
AcDbLine
 10
92.26282098
 20
68.00928509999998
 30
0.0
 11
92.26282098
 21
68.90539555
 31
0.0
  0
LINE
  5
449
330
18
100
AcDbEntity
  8
0
 62
     7
100
AcDbLine
 10
92.02398557
 20
68.00928509999998
 30
0.0
 11
92.02398557
 21
68.90539555
 31
0.0
  0
ARC
  5
44A
330
18
100
AcDbEntity
  8
0
 62
     7
100
AcDbCircle
 10
91.90456787
 20
68.00928509999998
 30
0.0
 40
0.1194177
100
AcDbArc
 50
270.0
 51
0.0
  0
ARC
  5
44B
330
18
100
AcDbEntity
  8
0
 62
     7
100
AcDbCircle
 10
92.38223869
 20
68.00928509999998
 30
0.0
 40
0.1194177
100
AcDbArc
 50
180.0
 51
270.0
  0
ARC
  5
44C
330
18
100
AcDbEntity
  8
0
 62
     7
100
AcDbCircle
 10
92.14340328
 20
68.90539555
 30
0.0
 40
0.1194177
100
AcDbArc
 50
0.0
 51
180.0
  0
LINE
  5
44D
330
18
100
AcDbEntity
  8
0
 62
     7
100
AcDbLine
 10
93.09874492
 20
67.83063621
 30
0.0
 11
93.09874492
 21
67.65546790000001
 31
0.0
  0
ARC
  5
44E
330
18
100
AcDbEntity
  8
0
 62
     7
100
AcDbCircle
 10
93.03951373
 20
67.83063621
 30
0.0
 40
0.05923118
100
AcDbArc
 50
0.0
 51
90.0
  0
LINE
  5
44F
330
18
100
AcDbEntity
  8
0
 62
     7
100
AcDbLine
 10
93.09874492
 20
67.65103198
 30
0.0
 11
93.09874492
 21
67.65546790000001
 31
0.0
  0
ARC
  5
450
330
18
100
AcDbEntity
  8
0
 62
     7
100
AcDbCircle
 10
92.93442615
 20
70.69666113
 30
0.0
 40
3.045629139999999
100
AcDbArc
 50
273.09274196
 51
285.38927792
  0
ARC
  5
451
330
18
100
AcDbEntity
  8
0
 62
     7
100
AcDbCircle
 10
92.93442615
 20
70.69666113
 30
0.0
 40
0.29806659
100
AcDbArc
 50
180.0
 51
284.86290312
  0
ARC
  5
452
330
18
100
AcDbEntity
  8
0
 62
     7
100
AcDbCircle
 10
92.93442615
 20
70.87626536000001
 30
0.0
 40
0.29806659
100
AcDbArc
 50
90.0
 51
180.0
  0
LINE
  5
453
330
18
100
AcDbEntity
  8
0
 62
     7
100
AcDbLine
 10
92.63635955999999
 20
70.87626536000001
 30
0.0
 11
92.63635955999999
 21
70.69666113
 31
0.0
  0
ARC
  5
454
330
18
100
AcDbEntity
  8
0
 62
     7
100
AcDbCircle
 10
93.23344808999999
 20
71.29374965
 30
0.0
 40
0.1194177
100
AcDbArc
 50
270.0
 51
0.0
  0
LINE
  5
455
330
18
100
AcDbEntity
  8
0
 62
     7
100
AcDbLine
 10
92.93442615
 20
71.17433195
 30
0.0
 11
93.23344808999999
 21
71.17433195
 31
0.0
  0
LINE
  5
456
330
18
100
AcDbEntity
  8
0
 62
     7
100
AcDbLine
 10
93.35286578999999
 20
71.43382155000001
 30
0.0
 11
93.35286578999999
 21
71.29374965
 31
0.0
  0
TEXT
  5
457
330
18
100
AcDbEntity
  8
0
  6
ByBlock
 62
     7
100
AcDbText
 10
61.48048048198671
 20
81.33243098000001
 30
0.0
 40
0.6879999999999999
  1
F - STAINLESS STEEL, ALLOY C, & CAST IRON
  7
ROMANS
 72
     1
 11
74.09381381532004
 21
81.67643098
 31
0.0
100
AcDbText
 73
     2
  0
LINE
  5
459
330
18
100
AcDbEntity
  8
0
  6
ByBlock
 62
     7
100
AcDbLine
 10
59.08211416
 20
77.42959377000001
 30
0.0
 11
59.08211416
 21
82.36427695999999
 31
0.0
  0
LINE
  5
45A
330
18
100
AcDbEntity
  8
0
  6
ByBlock
 62
     7
100
AcDbLine
 10
56.45492465
 20
77.84554306
 30
0.0
 11
56.45492465
 21
82.36427695999999
 31
0.0
  0
LINE
  5
45C
330
18
100
AcDbEntity
  8
0
  6
ByBlock
 62
     7
100
AcDbLine
 10
56.45492465
 20
77.84554306
 30
0.0
 11
56.45492465
 21
79.80482756
 31
0.0
  0
ARC
  5
45D
330
18
100
AcDbEntity
  8
0
 62
     7
100
AcDbCircle
 10
56.45492465
 20
75.3402616
 30
0.0
 40
1.43301246
100
AcDbArc
 50
0.0
 51
180.0
  0
LINE
  5
45E
330
18
100
AcDbEntity
  8
0
 62
     7
100
AcDbLine
 10
57.6491017
 20
77.31017606
 30
0.0
 11
56.45492465
 21
76.77327406
 31
0.0
  0
LINE
  5
45F
330
18
100
AcDbEntity
  8
0
 62
     7
100
AcDbLine
 10
55.02191219
 20
75.3402616
 30
0.0
 11
55.02191219
 21
73.64642869
 31
0.0
  0
ARC
  5
460
330
18
100
AcDbEntity
  8
0
 62
     7
100
AcDbCircle
 10
56.45492465
 20
71.69849927
 30
0.0
 40
2.32816757
100
AcDbArc
 50
130.63847703
 51
180.0
  0
ARC
  5
461
330
18
100
AcDbEntity
  8
0
 62
     7
100
AcDbCircle
 10
54.78307679
 20
73.64642869
 30
0.0
 40
0.23883541
100
AcDbArc
 50
310.63847703
 51
0.0
  0
POINT
  5
462
330
18
100
AcDbEntity
  8
0
  6
ByBlock
 62
     7
100
AcDbPoint
 10
56.45492465
 20
77.60670765000002
 30
0.0
  0
POINT
  5
463
330
18
100
AcDbEntity
  8
0
  6
ByBlock
 62
     7
100
AcDbPoint
 10
56.45492465
 20
77.60670765000002
 30
0.0
  0
LINE
  5
465
330
18
100
AcDbEntity
  8
0
 62
     7
100
AcDbLine
 10
57.88793711
 20
75.3402616
 30
0.0
 11
57.88793711
 21
73.64642869
 31
0.0
  0
LINE
  5
466
330
18
100
AcDbEntity
  8
0
  6
Continuous
 62
     7
100
AcDbLine
 10
59.08211416
 20
77.19075836
 30
0.0
 11
59.08211416
 21
73.48976484999998
 31
0.0
  0
ARC
  5
468
330
18
100
AcDbEntity
  8
0
 62
     7
100
AcDbCircle
 10
56.45492465
 20
71.69849927
 30
0.0
 40
2.32816757
100
AcDbArc
 50
0.0
 51
49.36152297000001
  0
LINE
  5
469
330
18
100
AcDbEntity
  8
0
 62
     7
100
AcDbLine
 10
58.07519899999999
 20
73.37034714000001
 30
0.0
 11
58.96269645
 21
73.37034714000001
 31
0.0
  0
ARC
  5
46A
330
18
100
AcDbEntity
  8
0
 62
     7
100
AcDbCircle
 10
58.12677252
 20
73.64642869
 30
0.0
 40
0.23883541
100
AcDbArc
 50
180.0
 51
229.36152297
  0
ARC
  5
46B
330
18
100
AcDbEntity
  8
0
 62
     7
100
AcDbCircle
 10
58.96269645
 20
73.48976484999998
 30
0.0
 40
0.1194177
100
AcDbArc
 50
270.0
 51
357.67821364
  0
LINE
  5
46D
330
18
100
AcDbEntity
  8
0
 62
     7
100
AcDbLine
 10
57.6491017
 20
77.31017606
 30
0.0
 11
57.6491017
 21
76.13238904000001
 31
0.0
  0
LINE
  5
46E
330
18
100
AcDbEntity
  8
0
 62
     7
100
AcDbLine
 10
57.6491017
 20
77.31017606
 30
0.0
 11
58.96269645
 21
77.31017606
 31
0.0
  0
POINT
  5
46F
330
18
100
AcDbEntity
  8
0
  6
ByBlock
 62
     7
100
AcDbPoint
 10
59.08211416
 20
77.19075836
 30
0.0
  0
ARC
  5
470
330
18
100
AcDbEntity
  8
0
 62
     7
100
AcDbCircle
 10
58.96269645
 20
77.19075836
 30
0.0
 40
0.1194177
100
AcDbArc
 50
2.321786359999999
 51
90.0
  0
LINE
  5
474
330
18
100
AcDbEntity
  8
0
  6
ByBlock
 62
     7
100
AcDbLine
 10
55.76707866999999
 20
81.67643098
 30
0.0
 11
55.07923268999999
 21
81.67643098
 31
0.0
  0
SOLID
  5
475
330
18
100
AcDbEntity
  8
0
  6
ByBlock
 62
     7
100
AcDbTrace
 10
55.76707866999999
 20
81.79107198
 30
0.0
 11
55.76707866999999
 21
81.56178999000001
 31
0.0
 12
56.45492465
 22
81.67643098
 32
0.0
 13
56.45492465
 23
81.67643098
 33
0.0
  0
SOLID
  5
476
330
18
100
AcDbEntity
  8
0
  6
ByBlock
 62
     7
100
AcDbTrace
 10
59.76996014
 20
81.79107198
 30
0.0
 11
59.76996014
 21
81.56178999000001
 31
0.0
 12
59.08211416
 22
81.67643098
 32
0.0
 13
59.08211416
 23
81.67643098
 33
0.0
  0
POINT
  5
477
330
18
100
AcDbEntity
  8
0
  6
ByBlock
 62
     7
100
AcDbPoint
 10
59.08211416
 20
81.67643098
 30
0.0
  0
LINE
  5
47B
330
18
100
AcDbEntity
  8
0
  6
ByBlock
 62
     7
100
AcDbLine
 10
59.76996014
 20
81.67643098
 30
0.0
 11
60.45780612
 21
81.67643098
 31
0.0
  0
LINE
  5
47C
330
18
100
AcDbEntity
  8
0
 62
     7
100
AcDbLine
 10
63.37322412999999
 20
71.29503750000001
 30
0.0
 11
64.07689010999999
 21
71.29503750000001
 31
0.0
  0
LINE
  5
47D
330
18
100
AcDbEntity
  8
0
 62
     7
100
AcDbLine
 10
88.60434017999999
 20
71.83160699
 30
0.0
 11
93.9208164
 21
71.83160699
 31
0.0
  0
TEXT
  5
47E
330
18
100
AcDbEntity
  8
0
 62
     7
100
AcDbText
 10
84.29318692913895
 20
74.87864637714285
 30
0.0
 40
0.6879999999999999
  1
76 mm (3")
  7
ROMANS
 72
     4
 11
87.61852026247229
 21
75.17350352
 31
0.0
100
AcDbText
  0
LINE
  5
47F
330
18
100
AcDbEntity
  8
0
 62
     7
100
AcDbLine
 10
88.60434017999999
 20
71.83160699
 30
0.0
 11
88.60434017999999
 21
71.64053866999999
 31
0.0
  0
POINT
  5
480
330
18
100
AcDbEntity
  8
0
  6
ByBlock
 62
     7
100
AcDbPoint
 10
91.26257829
 20
71.83160699
 30
0.0
  0
LINE
  5
481
330
18
100
AcDbEntity
  8
0
 62
     7
100
AcDbLine
 10
93.9208164
 20
71.83160699
 30
0.0
 11
93.9208164
 21
71.64053866999999
 31
0.0
  0
CIRCLE
  5
482
330
18
100
AcDbEntity
  8
0
 62
     7
100
AcDbCircle
 10
97.87545311
 20
70.27822149000001
 30
0.0
 40
1.97039213
  0
LINE
  5
483
330
18
100
AcDbEntity
  8
0
 62
     7
100
AcDbLine
 10
107.14656604
 20
71.64053866999999
 30
0.0
 11
106.57861544
 21
71.43382155000001
 31
0.0
  0
LINE
  5
484
330
18
100
AcDbEntity
  8
0
 62
     7
100
AcDbLine
 10
101.83008982
 20
71.64053866999999
 30
0.0
 11
102.39804043
 21
71.43382155000001
 31
0.0
  0
SOLID
  5
485
330
18
100
AcDbEntity
  8
0
 62
     7
100
AcDbTrace
 10
96.88719514
 20
71.78112416000001
 30
0.0
 11
96.72582361999999
 21
71.66192552
 31
0.0
 12
97.16410529999999
 22
71.23741027
 32
0.0
 13
97.16410529999999
 23
71.23741027
 33
0.0
  0
LINE
  5
486
330
18
100
AcDbEntity
  8
0
 62
     7
100
AcDbLine
 10
107.74991526
 20
52.52440189
 30
0.0
 11
102.43343904
 21
52.52440189
 31
0.0
  0
LINE
  5
487
330
18
100
AcDbEntity
  8
0
 62
     7
100
AcDbLine
 10
103.63230023
 20
51.80789566
 30
0.0
 11
107.06254695
 21
51.80789566
 31
0.0
  0
LINE
  5
488
330
18
100
AcDbEntity
  8
0
 62
     7
100
AcDbLine
 10
100.60790312
 20
50.49430091
 30
0.0
 11
107.41984472
 21
50.49430091
 31
0.0
  0
LINE
  5
489
330
18
100
AcDbEntity
  8
0
 62
     7
100
AcDbLine
 10
100.75792919
 20
50.73313632
 30
0.0
 11
107.41984472
 21
50.73313632
 31
0.0
  0
CIRCLE
  5
48B
330
18
100
AcDbEntity
  8
0
 62
     7
100
AcDbCircle
 10
98.47880232000001
 20
50.37488320000001
 30
0.0
 40
1.97039213
  0
CIRCLE
  5
48C
330
18
100
AcDbEntity
  8
0
 62
     7
100
AcDbCircle
 10
98.47880232000001
 20
50.37488320000001
 30
0.0
 40
1.194177049999999
  0
ARC
  5
48D
330
18
100
AcDbEntity
  8
0
 62
     7
100
AcDbCircle
 10
98.47880232000001
 20
50.37488320000001
 30
0.0
 40
2.20922754
100
AcDbArc
 50
11.83700416
 51
168.16299584
  0
LINE
  5
48E
330
18
100
AcDbEntity
  8
0
 62
     7
100
AcDbLine
 10
101.09070636
 20
48.46324458
 30
0.0
 11
98.95638262
 21
48.46324458
 31
0.0
  0
SOLID
  5
48F
330
18
100
AcDbEntity
  8
0
 62
     7
100
AcDbTrace
 10
99.37895398000001
 20
48.81501561
 30
0.0
 11
99.52238684000001
 21
48.95528713
 31
0.0
 12
99.02985585000001
 22
49.31544994
 32
0.0
 13
99.02985585000001
 23
49.31544994
 33
0.0
  0
LINE
  5
490
330
18
100
AcDbEntity
  8
0
 62
     7
100
AcDbLine
 10
93.95621500999999
 20
50.49430091
 30
0.0
 11
93.95621500999999
 21
48.46324458
 31
0.0
  0
LINE
  5
491
330
18
100
AcDbEntity
  8
0
 62
     7
100
AcDbLine
 10
95.86689828
 20
50.49430091
 30
0.0
 11
95.86689828
 21
48.46324458
 31
0.0
  0
LINE
  5
492
330
18
100
AcDbEntity
  8
0
 62
     7
100
AcDbLine
 10
94.79213894
 20
50.49430091
 30
0.0
 11
94.79213894
 21
48.46324458
 31
0.0
  0
LINE
  5
493
330
18
100
AcDbEntity
  8
0
 62
     7
100
AcDbLine
 10
95.03097434999999
 20
50.49430091
 30
0.0
 11
95.03097434999999
 21
48.46324458
 31
0.0
  0
LINE
  5
494
330
18
100
AcDbEntity
  8
0
 62
     7
100
AcDbLine
 10
98.00122203
 20
48.46324458
 30
0.0
 11
95.86689828
 21
48.46324458
 31
0.0
  0
LINE
  5
495
330
18
100
AcDbEntity
  8
0
 62
     7
100
AcDbLine
 10
95.86689828
 20
48.94187075
 30
0.0
 11
97.12642647
 21
48.94187075
 31
0.0
  0
LINE
  5
496
330
18
100
AcDbEntity
  8
0
 62
     7
100
AcDbLine
 10
94.79213894
 20
48.46324458
 30
0.0
 11
95.03097434999999
 21
48.46324458
 31
0.0
  0
LINE
  5
497
330
18
100
AcDbEntity
  8
0
 62
     7
100
AcDbLine
 10
94.79213894
 20
48.94187075
 30
0.0
 11
95.03097434999999
 21
48.94187075
 31
0.0
  0
LINE
  5
498
330
18
100
AcDbEntity
  8
0
 62
     7
100
AcDbLine
 10
94.09912303
 20
51.80789566
 30
0.0
 11
96.79738577000001
 21
51.80789566
 31
0.0
  0
ARC
  5
499
330
18
100
AcDbEntity
  8
0
 62
     7
100
AcDbCircle
 10
96.34970152000001
 20
50.67390514
 30
0.0
 40
0.17960423
100
AcDbArc
 50
270.0
 51
352.00537485
  0
ARC
  5
49A
330
18
100
AcDbEntity
  8
0
 62
     7
100
AcDbCircle
 10
96.19967545999999
 20
50.85255402
 30
0.0
 40
0.1194177
100
AcDbArc
 50
270.0
 51
348.16299584
  0
LINE
  5
49B
330
18
100
AcDbEntity
  8
0
 62
     7
100
AcDbLine
 10
94.52416560999999
 20
52.33333356
 30
0.0
 11
94.03769477
 21
52.15627266
 31
0.0
  0
LINE
  5
49C
330
18
100
AcDbEntity
  8
0
 62
     7
100
AcDbLine
 10
94.52416560999999
 20
52.52440189
 30
0.0
 11
94.52416560999999
 21
52.33333356
 31
0.0
  0
POINT
  5
49D
330
18
100
AcDbEntity
  8
0
  6
ByBlock
 62
     7
100
AcDbPoint
 10
98.17786971
 20
50.37488320000001
 30
0.0
  0
LINE
  5
49E
330
18
100
AcDbEntity
  8
0
 62
     7
100
AcDbLine
 10
98.17786971
 20
50.37488320000001
 30
0.0
 11
98.77973494
 21
50.37488320000001
 31
0.0
  0
LINE
  5
49F
330
18
100
AcDbEntity
  8
0
 62
     7
100
AcDbLine
 10
98.47880232000001
 20
50.07395059
 30
0.0
 11
98.47880232000001
 21
50.67581581999999
 31
0.0
  0
LINE
  5
4A0
330
18
100
AcDbEntity
  8
0
 62
     7
100
AcDbLine
 10
101.9266303
 20
50.49430091
 30
0.0
 11
101.9266303
 21
48.46324458
 31
0.0
  0
LINE
  5
4A1
330
18
100
AcDbEntity
  8
0
 62
     7
100
AcDbLine
 10
102.16546571
 20
50.49430091
 30
0.0
 11
102.16546571
 21
48.46324458
 31
0.0
  0
LINE
  5
4A2
330
18
100
AcDbEntity
  8
0
 62
     7
100
AcDbLine
 10
103.00138964
 20
50.49430091
 30
0.0
 11
103.00138964
 21
48.46324458
 31
0.0
  0
LINE
  5
4A3
330
18
100
AcDbEntity
  8
0
 62
     7
100
AcDbLine
 10
103.24022505
 20
50.49430091
 30
0.0
 11
103.24022505
 21
48.46324458
 31
0.0
  0
LINE
  5
4A4
330
18
100
AcDbEntity
  8
0
 62
     7
100
AcDbLine
 10
104.07614898
 20
50.49430091
 30
0.0
 11
104.07614898
 21
48.46324458
 31
0.0
  0
LINE
  5
4A5
330
18
100
AcDbEntity
  8
0
 62
     7
100
AcDbLine
 10
104.31498439
 20
50.49430091
 30
0.0
 11
104.31498439
 21
48.46324458
 31
0.0
  0
LINE
  5
4A6
330
18
100
AcDbEntity
  8
0
 62
     7
100
AcDbLine
 10
101.09070636
 20
50.49430091
 30
0.0
 11
101.09070636
 21
48.46324458
 31
0.0
  0
LINE
  5
4A7
330
18
100
AcDbEntity
  8
0
 62
     7
100
AcDbLine
 10
99.45067041000001
 20
48.88515137
 30
0.0
 11
102.23814608
 21
46.03485363999999
 31
0.0
  0
LINE
  5
4A8
330
18
100
AcDbEntity
  8
0
 62
     7
100
AcDbLine
 10
101.09070636
 20
48.94187075
 30
0.0
 11
99.83117817
 21
48.94187075
 31
0.0
  0
LINE
  5
4A9
330
18
100
AcDbEntity
  8
0
 62
     7
100
AcDbLine
 10
102.23814608
 20
46.03485363999999
 30
0.0
 11
103.33998022
 21
46.03485363999999
 31
0.0
  0
LINE
  5
4AA
330
18
100
AcDbEntity
  8
0
 62
     7
100
AcDbLine
 10
102.16546571
 20
48.94187075
 30
0.0
 11
101.9266303
 21
48.94187075
 31
0.0
  0
LINE
  5
4AB
330
18
100
AcDbEntity
  8
0
 62
     7
100
AcDbLine
 10
102.16546571
 20
48.46324458
 30
0.0
 11
101.9266303
 21
48.46324458
 31
0.0
  0
LINE
  5
4AC
330
18
100
AcDbEntity
  8
0
 62
     7
100
AcDbLine
 10
103.24022505
 20
48.94187075
 30
0.0
 11
103.00138964
 21
48.94187075
 31
0.0
  0
LINE
  5
4AD
330
18
100
AcDbEntity
  8
0
 62
     7
100
AcDbLine
 10
103.00138964
 20
48.46324458
 30
0.0
 11
103.24022505
 21
48.46324458
 31
0.0
  0
ARC
  5
4AE
330
18
100
AcDbEntity
  8
0
 62
     7
100
AcDbCircle
 10
103.30041157
 20
51.92731337
 30
0.0
 40
2.98544262
100
AcDbArc
 50
285.06056853
 51
289.8671263100001
  0
LINE
  5
4AF
330
18
100
AcDbEntity
  8
0
 62
     7
100
AcDbLine
 10
104.07614898
 20
48.46324458
 30
0.0
 11
104.31498439
 21
48.46324458
 31
0.0
  0
LINE
  5
4B0
330
18
100
AcDbEntity
  8
0
 62
     7
100
AcDbLine
 10
102.85848161
 20
51.80789566
 30
0.0
 11
100.16021887
 21
51.80789566
 31
0.0
  0
ARC
  5
4B1
330
18
100
AcDbEntity
  8
0
 62
     7
100
AcDbCircle
 10
100.60790312
 20
50.67390514
 30
0.0
 40
0.17960423
100
AcDbArc
 50
187.99462515
 51
270.0
  0
ARC
  5
4B2
330
18
100
AcDbEntity
  8
0
 62
     7
100
AcDbCircle
 10
100.75792919
 20
50.85255402
 30
0.0
 40
0.1194177
100
AcDbArc
 50
191.83700416
 51
270.0
  0
LINE
  5
4B3
330
18
100
AcDbEntity
  8
0
 62
     7
100
AcDbLine
 10
102.43343904
 20
52.52440189
 30
0.0
 11
102.43343904
 21
52.33333356
 31
0.0
  0
LINE
  5
4B4
330
18
100
AcDbEntity
  8
0
 62
     7
100
AcDbLine
 10
102.43343904
 20
52.33333356
 30
0.0
 11
102.91990988
 21
52.15627266
 31
0.0
  0
ARC
  5
4B5
330
18
100
AcDbEntity
  8
0
 62
     7
100
AcDbCircle
 10
102.85848161
 20
51.98749989
 30
0.0
 40
0.17960423
100
AcDbArc
 50
270.0
 51
70.0
  0
ARC
  5
4B6
330
18
100
AcDbEntity
  8
0
 62
     7
100
AcDbCircle
 10
103.63230023
 20
52.28556648
 30
0.0
 40
0.47767082
100
AcDbArc
 50
224.46011375
 51
270.0
  0
LINE
  5
4B7
330
18
100
AcDbEntity
  8
0
 62
     7
100
AcDbLine
 10
107.41984472
 20
50.49430091
 30
0.0
 11
107.41984472
 21
48.10499147
 31
0.0
  0
LINE
  5
4B8
330
18
100
AcDbEntity
  8
0
 62
     7
100
AcDbLine
 10
105.15090833
 20
50.49430091
 30
0.0
 11
105.15090833
 21
48.46324458
 31
0.0
  0
LINE
  5
4B9
330
18
100
AcDbEntity
  8
0
 62
     7
100
AcDbLine
 10
105.38974374
 20
50.49430091
 30
0.0
 11
105.38974374
 21
48.46324458
 31
0.0
  0
LINE
  5
4BA
330
18
100
AcDbEntity
  8
0
 62
     7
100
AcDbLine
 10
106.22566767
 20
50.49430091
 30
0.0
 11
106.22566767
 21
48.46324458
 31
0.0
  0
LINE
  5
4BB
330
18
100
AcDbEntity
  8
0
 62
     7
100
AcDbLine
 10
106.46450308
 20
50.49430091
 30
0.0
 11
106.46450308
 21
48.46324458
 31
0.0
  0
LINE
  5
4BC
330
18
100
AcDbEntity
  8
0
 62
     7
100
AcDbLine
 10
105.15090833
 20
48.46324458
 30
0.0
 11
105.38974374
 21
48.46324458
 31
0.0
  0
LINE
  5
4BD
330
18
100
AcDbEntity
  8
0
 62
     7
100
AcDbLine
 10
106.22566767
 20
48.46324458
 30
0.0
 11
106.46450308
 21
48.46324458
 31
0.0
  0
LINE
  5
4BE
330
18
100
AcDbEntity
  8
0
 62
     7
100
AcDbLine
 10
107.74991526
 20
52.33333356
 30
0.0
 11
107.18196465
 21
52.12661645
 31
0.0
  0
ARC
  5
4BF
330
18
100
AcDbEntity
  8
0
 62
     7
100
AcDbCircle
 10
103.30041157
 20
51.92731337
 30
0.0
 40
2.98544262
100
AcDbArc
 50
336.42182152
 51
353.62062979
  0
ARC
  5
4C0
330
18
100
AcDbEntity
  8
0
 62
     7
100
AcDbCircle
 10
103.30041157
 20
51.92731337
 30
0.0
 40
2.98544262
100
AcDbArc
 50
308.30445137
 51
314.41416859
  0
POINT
  5
4C1
330
18
100
AcDbEntity
  8
0
  6
ByBlock
 62
     7
100
AcDbPoint
 10
105.09167715
 20
52.52440189
 30
0.0
  0
LINE
  5
4C2
330
18
100
AcDbEntity
  8
0
 62
     7
100
AcDbLine
 10
107.18196465
 20
52.12661645
 30
0.0
 11
107.18196465
 21
51.92731337
 31
0.0
  0
LINE
  5
4C3
330
18
100
AcDbEntity
  8
0
 62
     7
100
AcDbLine
 10
106.76352501
 20
51.80789566
 30
0.0
 11
107.06254695
 21
51.80789566
 31
0.0
  0
ARC
  5
4C4
330
18
100
AcDbEntity
  8
0
 62
     7
100
AcDbCircle
 10
107.06254695
 20
51.92731337
 30
0.0
 40
0.1194177
100
AcDbArc
 50
270.0
 51
0.0
  0
ARC
  5
4C5
330
18
100
AcDbEntity
  8
0
 62
     7
100
AcDbCircle
 10
106.50472484
 20
51.56906025
 30
0.0
 40
0.23883541
100
AcDbArc
 50
90.0
 51
173.62062979
  0
LINE
  5
4C6
330
18
100
AcDbEntity
  8
0
 62
     7
100
AcDbLine
 10
107.41984472
 20
50.49430091
 30
0.0
 11
107.41984472
 21
50.73313632
 31
0.0
  0
LINE
  5
4C7
330
18
100
AcDbEntity
  8
0
 62
     7
100
AcDbLine
 10
107.74991526
 20
52.52440189
 30
0.0
 11
107.74991526
 21
52.33333356
 31
0.0
  0
ARC
  5
4C8
330
18
100
AcDbEntity
  8
0
 62
     7
100
AcDbCircle
 10
102.81648006
 20
70.69666113
 30
0.0
 40
3.045629139999999
100
AcDbArc
 50
301.88832111
 51
0.0
  0
LINE
  5
4C9
330
18
100
AcDbEntity
  8
0
 62
     7
100
AcDbLine
 10
102.51745813
 20
71.17433195
 30
0.0
 11
106.45919773
 21
71.17433195
 31
0.0
  0
LINE
  5
4CA
330
18
100
AcDbEntity
  8
0
 62
     7
100
AcDbLine
 10
98.92307425
 20
68.60940900999999
 30
0.0
 11
102.00824411
 21
67.76023277
 31
0.0
  0
CIRCLE
  5
4CB
330
18
100
AcDbEntity
  8
0
 62
     7
100
AcDbCircle
 10
97.87545311
 20
70.27822149000001
 30
0.0
 40
1.194177049999999
  0
POINT
  5
4CC
330
18
100
AcDbEntity
  8
0
  6
ByBlock
 62
     7
100
AcDbPoint
 10
97.57452049000001
 20
70.27822149000001
 30
0.0
  0
LINE
  5
4CD
330
18
100
AcDbEntity
  8
0
 62
     7
100
AcDbLine
 10
97.57452049000001
 20
70.27822149000001
 30
0.0
 11
98.17638571999999
 21
70.27822149000001
 31
0.0
  0
LINE
  5
4CE
330
18
100
AcDbEntity
  8
0
 62
     7
100
AcDbLine
 10
97.87545311
 20
69.97728887
 30
0.0
 11
97.87545311
 21
70.57915411
 31
0.0
  0
ARC
  5
4CF
330
18
100
AcDbEntity
  8
0
 62
     7
100
AcDbCircle
 10
103.27982076
 20
67.65103198
 30
0.0
 40
0.05923118
100
AcDbArc
 50
270.0
 51
0.0
  0
ARC
  5
4D0
330
18
100
AcDbEntity
  8
0
 62
     7
100
AcDbCircle
 10
103.93518512
 20
67.65103198
 30
0.0
 40
0.05923118
100
AcDbArc
 50
180.0
 51
270.0
  0
ARC
  5
4D1
330
18
100
AcDbEntity
  8
0
 62
     7
100
AcDbCircle
 10
102.71139248
 20
67.65103198
 30
0.0
 40
0.05923118
100
AcDbArc
 50
180.0
 51
270.0
  0
ARC
  5
4D2
330
18
100
AcDbEntity
  8
0
 62
     7
100
AcDbCircle
 10
104.5036134
 20
67.65103198
 30
0.0
 40
0.05923118
100
AcDbArc
 50
270.0
 51
0.0
  0
LINE
  5
4D3
330
18
100
AcDbEntity
  8
0
 62
     7
100
AcDbLine
 10
104.5036134
 20
67.59180079999999
 30
0.0
 11
102.71139248
 21
67.59180079999999
 31
0.0
  0
POINT
  5
4D4
330
18
100
AcDbEntity
  8
0
  6
ByBlock
 62
     7
100
AcDbPoint
 10
102.71139248
 20
67.59180079999999
 30
0.0
  0
LINE
  5
4D5
330
18
100
AcDbEntity
  8
0
 62
     7
100
AcDbLine
 10
99.59310268000001
 20
71.24368774
 30
0.0
 11
102.74002388
 21
70.40856714
 31
0.0
  0
ARC
  5
4D6
330
18
100
AcDbEntity
  8
0
 62
     7
100
AcDbCircle
 10
102.81648006
 20
70.69666113
 30
0.0
 40
3.045629139999999
100
AcDbArc
 50
254.61072208
 51
266.90725804
  0
ARC
  5
4D7
330
18
100
AcDbEntity
  8
0
 62
     7
100
AcDbCircle
 10
103.60750294
 20
68.90539555
 30
0.0
 40
0.1194177
100
AcDbArc
 50
0.0
 51
180.0
  0
LINE
  5
4D8
330
18
100
AcDbEntity
  8
0
 62
     7
100
AcDbLine
 10
104.5036134
 20
67.88986739000001
 30
0.0
 11
102.71139248
 21
67.88986739000001
 31
0.0
  0
ARC
  5
4D9
330
18
100
AcDbEntity
  8
0
 62
     7
100
AcDbCircle
 10
103.36866753
 20
68.00928509999998
 30
0.0
 40
0.1194177
100
AcDbArc
 50
270.0
 51
0.0
  0
LINE
  5
4DA
330
18
100
AcDbEntity
  8
0
 62
     7
100
AcDbLine
 10
103.48808524
 20
68.00928509999998
 30
0.0
 11
103.48808524
 21
68.90539555
 31
0.0
  0
ARC
  5
4DB
330
18
100
AcDbEntity
  8
0
 62
     7
100
AcDbCircle
 10
103.27982076
 20
67.83063621
 30
0.0
 40
0.05923118
100
AcDbArc
 50
0.0
 51
90.0
  0
LINE
  5
4DC
330
18
100
AcDbEntity
  8
0
 62
     7
100
AcDbLine
 10
103.33905194
 20
67.65103198
 30
0.0
 11
103.33905194
 21
67.83063621
 31
0.0
  0
ARC
  5
4DD
330
18
100
AcDbEntity
  8
0
 62
     7
100
AcDbCircle
 10
102.71139248
 20
67.83063621
 30
0.0
 40
0.05923118
100
AcDbArc
 50
90.0
 51
180.0
  0
LINE
  5
4DE
330
18
100
AcDbEntity
  8
0
 62
     7
100
AcDbLine
 10
102.6521613
 20
67.83063621
 30
0.0
 11
102.6521613
 21
67.65103198
 31
0.0
  0
ARC
  5
4DF
330
18
100
AcDbEntity
  8
0
 62
     7
100
AcDbCircle
 10
103.84633835
 20
68.00928509999998
 30
0.0
 40
0.1194177
100
AcDbArc
 50
180.0
 51
270.0
  0
ARC
  5
4E0
330
18
100
AcDbEntity
  8
0
 62
     7
100
AcDbCircle
 10
104.4884644
 20
68.00928509999998
 30
0.0
 40
0.1194177
100
AcDbArc
 50
121.88832111
 51
270.0
  0
LINE
  5
4E1
330
18
100
AcDbEntity
  8
0
 62
     7
100
AcDbLine
 10
103.72692065
 20
68.00928509999998
 30
0.0
 11
103.72692065
 21
68.90539555
 31
0.0
  0
ARC
  5
4E2
330
18
100
AcDbEntity
  8
0
 62
     7
100
AcDbCircle
 10
103.93518512
 20
67.83063621
 30
0.0
 40
0.05923118
100
AcDbArc
 50
90.0
 51
180.0
  0
LINE
  5
4E3
330
18
100
AcDbEntity
  8
0
 62
     7
100
AcDbLine
 10
103.87595394
 20
67.65103198
 30
0.0
 11
103.87595394
 21
67.83063621
 31
0.0
  0
LINE
  5
4E4
330
18
100
AcDbEntity
  8
0
 62
     7
100
AcDbLine
 10
104.56284458
 20
67.83063621
 30
0.0
 11
104.56284458
 21
67.65103198
 31
0.0
  0
LINE
  5
4E5
330
18
100
AcDbEntity
  8
0
 62
     7
100
AcDbLine
 10
104.5036134
 20
67.88986739000001
 30
0.0
 11
104.47998198
 21
67.88986739000001
 31
0.0
  0
ARC
  5
4E6
330
18
100
AcDbEntity
  8
0
 62
     7
100
AcDbCircle
 10
104.5036134
 20
67.83063621
 30
0.0
 40
0.05923118
100
AcDbArc
 50
0.0
 51
90.0
  0
LINE
  5
4E7
330
18
100
AcDbEntity
  8
0
 62
     7
100
AcDbLine
 10
102.39804043
 20
71.43382155000001
 30
0.0
 11
102.39804043
 21
71.29374965
 31
0.0
  0
LINE
  5
4E8
330
18
100
AcDbEntity
  8
0
 62
     7
100
AcDbLine
 10
103.11454666
 20
70.87626536000001
 30
0.0
 11
103.11454666
 21
70.69666113
 31
0.0
  0
ARC
  5
4E9
330
18
100
AcDbEntity
  8
0
 62
     7
100
AcDbCircle
 10
102.81648006
 20
70.87626536000001
 30
0.0
 40
0.29806659
100
AcDbArc
 50
0.0
 51
90.0
  0
ARC
  5
4EA
330
18
100
AcDbEntity
  8
0
 62
     7
100
AcDbCircle
 10
102.51745813
 20
71.29374965
 30
0.0
 40
0.1194177
100
AcDbArc
 50
180.0
 51
270.0
  0
ARC
  5
4EB
330
18
100
AcDbEntity
  8
0
 62
     7
100
AcDbCircle
 10
102.81648006
 20
70.69666113
 30
0.0
 40
0.29806659
100
AcDbArc
 50
255.13709688
 51
0.0
  0
LINE
  5
4EC
330
18
100
AcDbEntity
  8
0
 62
     7
100
AcDbLine
 10
105.86210921
 20
70.87626536000001
 30
0.0
 11
105.86210921
 21
70.69666113
 31
0.0
  0
ARC
  5
4ED
330
18
100
AcDbEntity
  8
0
 62
     7
100
AcDbCircle
 10
106.1601758
 20
70.87626536000001
 30
0.0
 40
0.29806659
100
AcDbArc
 50
90.0
 51
180.0
  0
LINE
  5
4EE
330
18
100
AcDbEntity
  8
0
 62
     7
100
AcDbLine
 10
106.57861544
 20
71.43382155000001
 30
0.0
 11
106.57861544
 21
71.29374965
 31
0.0
  0
ARC
  5
4EF
330
18
100
AcDbEntity
  8
0
 62
     7
100
AcDbCircle
 10
106.45919773
 20
71.29374965
 30
0.0
 40
0.1194177
100
AcDbArc
 50
270.0
 51
0.0
  0
LINE
  5
4F0
330
18
100
AcDbEntity
  8
0
 62
     7
100
AcDbLine
 10
107.14656604
 20
71.83160699
 30
0.0
 11
101.83008982
 21
71.83160699
 31
0.0
  0
LINE
  5
4F1
330
18
100
AcDbEntity
  8
0
 62
     7
100
AcDbLine
 10
96.80650937999999
 20
71.72152484
 30
0.0
 11
94.09558452000002
 21
75.17350352
 31
0.0
  0
POINT
  5
4F2
330
18
100
AcDbEntity
  8
0
  6
ByBlock
 62
     7
100
AcDbPoint
 10
101.83008982
 20
71.83160699
 30
0.0
  0
POINT
  5
4F3
330
18
100
AcDbEntity
  8
0
  6
ByBlock
 62
     7
100
AcDbPoint
 10
101.83008982
 20
71.64053866999999
 30
0.0
  0
LINE
  5
4F4
330
18
100
AcDbEntity
  8
0
 62
     7
100
AcDbLine
 10
101.83008982
 20
71.83160699
 30
0.0
 11
101.83008982
 21
71.64053866999999
 31
0.0
  0
POINT
  5
4F5
330
18
100
AcDbEntity
  8
0
  6
ByBlock
 62
     7
100
AcDbPoint
 10
104.48832793
 20
71.83160699
 30
0.0
  0
LINE
  5
4F6
330
18
100
AcDbEntity
  8
0
 62
     7
100
AcDbLine
 10
107.14656604
 20
71.83160699
 30
0.0
 11
107.14656604
 21
71.64053866999999
 31
0.0
  0
TEXT
  5
4FE
330
18
100
AcDbEntity
  8
0
  6
ByBlock
 62
     7
100
AcDbText
 10
61.48660916380952
 20
79.02703682000001
 30
0.0
 40
0.6879999999999999
  1
G - ALUM.
  7
ROMANS
 72
     4
 11
64.41879964
 21
79.37103682
 31
0.0
100
AcDbText
  0
SOLID
  5
4FF
330
18
100
AcDbEntity
  8
0
  6
ByBlock
 62
     7
100
AcDbTrace
 10
59.76996014
 20
79.48567782000001
 30
0.0
 11
59.76996014
 21
79.25639582000001
 31
0.0
 12
59.08211416
 22
79.37103682
 32
0.0
 13
59.08211416
 23
79.37103682
 33
0.0
  0
LINE
  5
500
330
18
100
AcDbEntity
  8
0
  6
ByBlock
 62
     7
100
AcDbLine
 10
59.76996014
 20
79.37103682
 30
0.0
 11
60.45780612
 21
79.37103682
 31
0.0
  0
LINE
  5
501
330
18
100
AcDbEntity
  8
0
  6
ByBlock
 62
     7
100
AcDbLine
 10
55.76707866999999
 20
79.37103682
 30
0.0
 11
55.07923268999999
 21
79.37103682
 31
0.0
  0
SOLID
  5
502
330
18
100
AcDbEntity
  8
0
  6
ByBlock
 62
     7
100
AcDbTrace
 10
55.76707866999999
 20
79.48567782000001
 30
0.0
 11
55.76707866999999
 21
79.25639582000001
 31
0.0
 12
56.45492465
 22
79.37103682
 32
0.0
 13
56.45492465
 23
79.37103682
 33
0.0
  0
ARC
  5
503
330
18
100
AcDbEntity
  8
0
 62
     7
100
AcDbCircle
 10
14.70532498
 20
75.34121693
 30
0.0
 40
1.97039213
100
AcDbArc
 50
46.65824177
 51
133.34175823
  0
ARC
  5
504
330
18
100
AcDbEntity
  8
0
  6
HIDDEN
 62
     7
100
AcDbCircle
 10
14.70532498
 20
75.34121693
 30
0.0
 40
1.97039213
100
AcDbArc
 50
313.34175823
 51
46.65824177
  0
ARC
  5
505
330
18
100
AcDbEntity
  8
0
  6
HIDDEN
 62
     7
100
AcDbCircle
 10
14.70532498
 20
75.34121693
 30
0.0
 40
1.97039213
100
AcDbArc
 50
133.34175823
 51
226.65824177
  0
POINT
  5
51C
330
18
100
AcDbEntity
  8
DEFPOINTS
  6
ByBlock
 62
     0
100
AcDbPoint
 10
12.66286159
 20
25.03339605
 30
0.0
  0
POINT
  5
51D
330
18
100
AcDbEntity
  8
DEFPOINTS
  6
ByBlock
 62
     0
100
AcDbPoint
 10
14.63325372
 20
22.40620654
 30
0.0
  0
TEXT
  5
52A
330
18
100
AcDbEntity
  8
0
  6
ByBlock
 62
     7
100
AcDbText
 10
86.35231663761905
 20
29.11413709
 30
0.0
 40
0.6879999999999999
  1
U
  7
ROMANS
 72
     4
 11
86.71269759000001
 21
29.45813709
 31
0.0
100
AcDbText
  0
TEXT
  5
553
330
18
100
AcDbEntity
  8
0
 62
     7
100
AcDbText
 10
67.50867105867126
 20
2.343881616090278
 30
0.0
 40
0.35265541
  1
REV. B
  7
ROMANS
100
AcDbText
  0
TEXT
  5
562
330
18
100
AcDbEntity
  8
0
 62
     7
100
AcDbText
 10
38.69590562720778
 20
66.13403162266028
 30
0.0
 40
0.6879999999999999
  1
FNPT AIR INLET
  7
ROMANS
100
AcDbText
  0
TEXT
  5
563
330
18
100
AcDbEntity
  8
0
 62
     7
100
AcDbText
 10
38.59815843341339
 20
67.29499463497714
 30
0.0
 40
0.6879999999999999
  1
19 mm (3/4")
  7
ROMANS
 72
     4
 11
42.66063462388958
 21
67.58985177783428
 31
0.0
100
AcDbText
  0
TEXT
  5
566
330
18
100
AcDbEntity
  8
0
 62
     7
100
AcDbText
 10
84.22078654108103
 20
73.64769925864845
 30
0.0
 40
0.6879999999999999
  1
FNPT LIQUID INLET
  7
ROMANS
 72
     4
 11
89.16783416012865
 21
73.95893735388654
 31
0.0
100
AcDbText
  0
TEXT
  5
568
330
18
100
AcDbEntity
  8
0
 62
     7
100
AcDbText
 10
21.39199777577047
 20
80.69136991158584
 30
0.0
 40
0.6879999999999999
  1
FNPT LIQUID DISCHARGE
  7
ROMANS
 72
     4
 11
27.7805692043419
 21
81.00260800682395
 31
0.0
100
AcDbText
  0
TEXT
  5
569
330
18
100
AcDbEntity
  8
0
 62
     7
100
AcDbText
 10
21.42335075321856
 20
81.92231703008026
 30
0.0
 40
0.6879999999999999
  1
76 mm (3")
  7
ROMANS
 72
     4
 11
24.74868408655189
 21
82.2171741729374
 31
0.0
100
AcDbText
  0
TEXT
  5
56A
330
18
100
AcDbEntity
  8
0
 62
     7
100
AcDbText
 10
22.76352620803685
 20
40.71421272493068
 30
0.0
 40
0.6879999999999999
  1
FNPT LIQUID INLET
  7
ROMANS
 72
     4
 11
27.71057382708446
 21
41.02545082016876
 31
0.0
100
AcDbText
  0
TEXT
  5
56B
330
18
100
AcDbEntity
  8
0
 62
     7
100
AcDbText
 10
22.81736485522109
 20
41.94515984342508
 30
0.0
 40
0.6879999999999999
  1
76 mm (3")
  7
ROMANS
 72
     4
 11
26.14269818855442
 21
42.24001698628223
 31
0.0
100
AcDbText
  0
TEXT
  5
56C
330
18
100
AcDbEntity
  8
0
 62
     7
100
AcDbText
 10
103.4933210619656
 20
44.50600459493068
 30
0.0
 40
0.6879999999999999
  1
FNPT LIQUID INLET
  7
ROMANS
 72
     4
 11
108.4403686810132
 21
44.81724269016877
 31
0.0
100
AcDbText
  0
TEXT
  5
56D
330
18
100
AcDbEntity
  8
0
 62
     7
100
AcDbText
 10
103.5484307416652
 20
45.73695171342509
 30
0.0
 40
0.6879999999999999
  1
76 mm (3")
  7
ROMANS
 72
     4
 11
106.8737640749986
 21
46.03180885628223
 31
0.0
100
AcDbText
  0
ENDSEC
  0
SECTION
  2
OBJECTS
  0
DICTIONARY
  5
C
330
0
100
AcDbDictionary
281
     1
  3
ACAD_COLOR
350
5EF
  3
ACAD_GROUP
350
D
  3
ACAD_LAYOUT
350
540
  3
ACAD_MATERIAL
350
5EE
  3
ACAD_MLINESTYLE
350
E
  3
ACAD_PLOTSETTINGS
350
541
  3
ACAD_PLOTSTYLENAME
350
53E
  3
ACAD_TABLESTYLE
350
5F0
  3
ACDBHEADERROUNDTRIPXREC
350
62F
  3
AcDbVariableDictionary
350
61A
  3
ASE_INDEX_DICTIONARY
350
5E9
  0
DICTIONARY
  5
5EF
102
{ACAD_REACTORS
330
C
102
}
330
C
100
AcDbDictionary
281
     1
  0
DICTIONARY
  5
D
102
{ACAD_REACTORS
330
C
102
}
330
C
100
AcDbDictionary
281
     1
  0
DICTIONARY
  5
540
102
{ACAD_REACTORS
330
C
102
}
330
C
100
AcDbDictionary
281
     1
  3
Layout1
350
543
  3
Model
350
542
  0
DICTIONARY
  5
5EE
102
{ACAD_REACTORS
330
C
102
}
330
C
100
AcDbDictionary
281
     1
  0
DICTIONARY
  5
E
102
{ACAD_REACTORS
330
C
102
}
330
C
100
AcDbDictionary
281
     1
  3
STANDARD
350
1B
  0
DICTIONARY
  5
541
102
{ACAD_REACTORS
330
C
102
}
330
C
100
AcDbDictionary
281
     1
  0
ACDBDICTIONARYWDFLT
  5
53E
102
{ACAD_REACTORS
330
C
102
}
330
C
100
AcDbDictionary
281
     1
  3
Normal
350
53F
100
AcDbDictionaryWithDefault
340
53F
  0
DICTIONARY
  5
5F0
102
{ACAD_REACTORS
330
C
102
}
330
C
100
AcDbDictionary
281
     1
  3
Standard
350
5F1
  0
DICTIONARY
  5
62F
102
{ACAD_REACTORS
330
C
102
}
330
C
100
AcDbDictionary
281
     1
  0
DICTIONARY
  5
61A
102
{ACAD_REACTORS
330
C
102
}
330
C
100
AcDbDictionary
281
     1
  3
CTABLESTYLE
350
61B
  3
DIMASSOC
350
62C
  3
PROJECTNAME
350
62D
  0
DICTIONARY
  5
5E9
102
{ACAD_REACTORS
330
C
102
}
330
C
100
AcDbDictionary
281
     1
  3
ASEBlockHierarchyIndexRecord
350
5EB
1001
DCO15
1040
1553584028.457
  0
LAYOUT
  5
543
102
{ACAD_XDICTIONARY
360
632
102
}
102
{ACAD_REACTORS
330
540
102
}
330
540
100
AcDbPlotSettings
  1

  2
\\WILNET_P\Eng_8100PS
  4

  6

 40
0.0
 41
0.0
 42
0.0
 43
0.0
 44
0.0
 45
0.0
 46
0.0
 47
0.0
 48
0.0
 49
0.0
140
0.0
141
0.0
142
1.0
143
1.0
 70
   688
 72
     0
 73
     0
 74
     5
  7

 75
    16
147
1.0
148
0.0
149
0.0
100
AcDbLayout
  1
Layout1
 70
     0
 71
     1
 10
0.0
 20
0.0
 11
12.0
 21
9.0
 12
0.0
 22
0.0
 32
0.0
 14
1.000000000000000E+20
 24
1.000000000000000E+20
 34
1.000000000000000E+20
 15
-1.000000000000000E+20
 25
-1.000000000000000E+20
 35
-1.000000000000000E+20
146
0.0
 13
0.0
 23
0.0
 33
0.0
 16
1.0
 26
0.0
 36
0.0
 17
0.0
 27
1.0
 37
0.0
 76
     0
330
15
  0
LAYOUT
  5
542
102
{ACAD_XDICTIONARY
360
630
102
}
102
{ACAD_REACTORS
330
540
102
}
330
540
100
AcDbPlotSettings
  1

  2
\\wilnet_p\Eng_8100PS
  4
Letter
  6

 40
5.027083396911621
 41
5.027072429656982
 42
5.365753173828125
 43
5.365753173828125
 44
215.8999938964844
 45
279.3999938964844
 46
2.647819180219018
 47
0.0
 48
2.592180937716079
 49
1.205747480816
140
114.4793324430395
141
84.85398782200268
142
1.0
143
10.19055030223836
 70
 11956
 72
     0
 73
     1
 74
     1
  7
monochrome.ctb
 75
     0
147
0.0981301274554672
148
-135.5531902173362
149
-62.51190116865442
100
AcDbLayout
  1
Model
 70
     1
 71
     0
 10
0.0
 20
0.0
 11
12.0
 21
9.0
 12
0.0
 22
0.0
 32
0.0
 14
0.0
 24
0.0
 34
0.0
 15
0.0
 25
0.0
 35
0.0
146
0.0
 13
0.0
 23
0.0
 33
0.0
 16
1.0
 26
0.0
 36
0.0
 17
0.0
 27
1.0
 37
0.0
 76
     0
330
18
1001
ACAD_PSEXT
1000
\\wilnet_p\Eng_8100PS
1000
HP LaserJet 8100 Series PS
1000
Engineering Dept
1000

1070
     0
  0
MLINESTYLE
  5
1B
102
{ACAD_REACTORS
330
E
102
}
330
E
100
AcDbMlineStyle
  2
STANDARD
 70
     0
  3

 62
     0
 51
90.0
 52
90.0
 71
     2
 49
0.5
 62
   256
  6
BYLAYER
 49
-0.5
 62
   256
  6
BYLAYER
  0
ACDBPLACEHOLDER
  5
53F
102
{ACAD_REACTORS
330
53E
102
}
330
53E
  0
TABLESTYLE
  5
5F1
102
{ACAD_REACTORS
330
5F0
102
}
330
5F0
100
AcDbTableStyle
  3
Standard
 70
     0
 71
     0
 40
0.06
 41
0.06
280
     0
281
     0
  7
STANDARD
140
0.18
170
     2
 62
     0
 63
     7
283
     0
274
    -2
284
     1
 64
     0
275
    -2
285
     1
 65
     0
276
    -2
286
     1
 66
     0
277
    -2
287
     1
 67
     0
278
    -2
288
     1
 68
     0
279
    -2
289
     1
 69
     0
  7
STANDARD
140
0.25
170
     5
 62
     0
 63
     7
283
     0
274
    -2
284
     1
 64
     0
275
    -2
285
     1
 65
     0
276
    -2
286
     1
 66
     0
277
    -2
287
     1
 67
     0
278
    -2
288
     1
 68
     0
279
    -2
289
     1
 69
     0
  7
STANDARD
140
0.18
170
     5
 62
     0
 63
     7
283
     0
274
    -2
284
     1
 64
     0
275
    -2
285
     1
 65
     0
276
    -2
286
     1
 66
     0
277
    -2
287
     1
 67
     0
278
    -2
288
     1
 68
     0
279
    -2
289
     1
 69
     0
  0
DICTIONARYVAR
  5
61B
102
{ACAD_REACTORS
330
61A
102
}
330
61A
100
DictionaryVariables
280
     0
  1
STANDARD
  0
DICTIONARYVAR
  5
62C
102
{ACAD_REACTORS
330
61A
102
}
330
61A
100
DictionaryVariables
280
     0
  1
1
  0
DICTIONARYVAR
  5
62D
102
{ACAD_REACTORS
330
61A
102
}
330
61A
100
DictionaryVariables
280
     0
  1

  0
XRECORD
  5
5EB
102
{ACAD_REACTORS
330
5E9
102
}
330
5E9
100
AcDbXrecord
280
     1
  0
DICTIONARY
  5
632
330
543
100
AcDbDictionary
280
     1
281
     1
  3
ACAD_XREC_ROUNDTRIP
360
633
  0
DICTIONARY
  5
630
330
542
100
AcDbDictionary
280
     1
281
     1
  3
ACAD_XREC_ROUNDTRIP
360
631
  0
XRECORD
  5
633
102
{ACAD_REACTORS
330
632
102
}
330
632
100
AcDbXrecord
280
     1
102
SHADEPLOT
 70
     0
102
SHADEPLOTRESLEVEL
 70
     2
102
SHADEPLOTCUSTOMDPI
 70
   300
  0
XRECORD
  5
631
102
{ACAD_REACTORS
330
630
102
}
330
630
100
AcDbXrecord
280
     1
102
SHADEPLOT
 70
     0
102
SHADEPLOTRESLEVEL
 70
     2
102
SHADEPLOTCUSTOMDPI
 70
   300
  0
ENDSEC
  0
EOF
